PrimaNota.ru - самый крупный в мире бесплатный архив песенных текстов, аккордов, табулатур и нот


Rhett And Link - Good Mythical Morning Theme - таба, видео

Регистрация Запомнить меня
Войти через:  Facebook Google Twitter Vk Yandex Mail.ru

Rhett And Link - Good Mythical Morning Theme - таба, видео

Печатать
Просмотров: 23
-------------------------------------------------------------------------------
              Good Mythical Morning (Theme) - Rhett & Link
-------------------------------------------------------------------------------
Tabbed by: Shane Groves
E-mail: shaneyboy11@gmail.com

*my first tab!

Tuning: Standard

e|--------------------------12---14---12-------------------------------------|
B|-10---12---10---12s/-14------------------14---12----10---12---10---12s/-14-|
G|---------------------------------------------------------------------------|
D|---------------------------------------------------------------------------|
A|---------------------------------------------------------------------------|
E|---------------------------------------------------------------------------|

e|-12------------------------------------------------------------------------|
B|------10-------------------------------------------------------------------|
G|---------------------------------------------------------------------------|
D|---------------------------------------------------------------------------|
A|---------------------------------------------------------------------------|
E|---------------------------------------------------------------------------|


************************************

| /   slide up

************************************
Добавлено: 08.03.2016
Другие материалы по этой песне:
  • Аккорды и текст

Страница создана 08.03.2016
http://primanota.ru/rhett-and-link/good-mythical-morning-theme-chords.htm
Привет, Гость.
Предлагаем пройти революционный курс по гитаре.
Подарок от PrimaNota.Ru, забирай!