PrimaNota.ru - самый крупный в мире бесплатный архив песенных текстов, аккордов, табулатур и нот


Rhett And Link - The First Comment Song - аккорды и текст, видео

Регистрация Запомнить меня
Войти через:  Facebook Google Twitter Vk Yandex Mail.ru

Rhett And Link - The First Comment Song - аккорды и текст, видео

Печатать
Просмотров: 106
The First Comment Song
Rhett And Link
STOP - STOP and mute
Stop - Stop and fade

Capo 5

Chords:

       E-A-D-G-B-e
C      x-3-2-0-1-0
Gsus2  x-2-0-0-1-0  
Am     x-0-2-2-1-0
F      x-x-3-2-1-1
F*     1-3-3-2-1-1
Em     0-2-2-0-0-0



Intro:

One, two, three...

      C                                 Gsus2      

e|---------------------------------------------------------------------------| |x2(1x Intro + 1xVerse)
B|----------1---1-1---------1---1-------------1---1---------1----------------| |x2(1x Intro + 1xVerse)
G|----------0---0-0---------0---0-------------0---0---------0----------------| |x2(1x Intro + 1xVerse)
D|----------2---2-2---------2---2-0h2---------0---0---------0---0------------| |x2(1x Intro + 1xVerse)
A|----3---------------3-----------------2-------------2--------2-------------| |x2(1x Intro + 1xVerse)
E|---------------------------------------------------------------------------| |x2(1x Intro + 1xVerse)

      Am                                F

e|---------------------------------------------------------------------------| |x2(1x Intro + 1xVerse)
B|----------1---1-1---------1---1-------------1---1---------1----------------| |x2(1x Intro + 1xVerse)
G|----------2---2-2---------2---2-------------2---2---------2--0h2-----------| |x2(1x Intro + 1xVerse)
D|----------2---2-2---------2---2-0h2---3-----3---3---3-----3----------------| |x2(1x Intro + 1xVerse)
A|----0---------------0------------------------------------------------------| |x2(1x Intro + 1xVerse)
E|---------------------------------------------------------------------------| |x2(1x Intro + 1xVerse)




Verse 1:

C
Sittin' there starin' at your screen
      Gsus2
and a new video pops up in your feed
         Am                                 (Stop playing tab and strum)
you know exactly what this means
F*
open it up but don't watch it
       F*
scroll down really quick and comment



Chorus:

          C
You typed first
           Em                           Am
you're the first to comment on this video
    F
now everybody knows
          C
you typed first
                Em                                     Am
Could have said something a little bit intelligent but no
F      Stop
that's the word you chose -

(Strum quieter)
          C
you typed first

Gsus2 Am F*


Verse 2:

            C
You've been in the under 301+ club before
    Gsus2
but this means so much more -
         Am
you've unlocked the first comments door
F*
Everybody's gonna see you
    F*
and everybody's gonna wanna be you



Chorus:

          C
You typed first -
           Em                           Am
you're the first to comment on this video
    F
Now everybody knows -
          C
you typed first
           Em                                          Am
Could have said something a little bit intelligent but no -
F
that's the word you chose -
          C
you typed first...
     Em                          Am
Hold on we just refreshed the video
                 F
and there's some news we need to break
          C
you typed first -
         Em Stop                          Am
but some other people had the same idea also
         F
You were actually 28th
              C
but you typed first...
          Gsus2
You typed first...
           Am
Y ou typed first...
F       
You and 63 other people -
          C STOP
you typed first.
Добавлено: 28.09.2015
Другие материалы по этой песне:
  • Аккорды и текст

Страница создана 28.09.2015
http://primanota.ru/rhett-and-link/first-comment-song-chords.htm
Привет, Гость.
Предлагаем пройти революционный курс по гитаре.
Подарок от PrimaNota.Ru, забирай!