PrimaNota.ru - самый крупный в мире бесплатный архив песенных текстов, аккордов, табулатур и нот


Rhett And Link - The Bubble Bullets Song - аккорды и текст, видео

Регистрация Запомнить меня
Войти через:  Facebook Google Twitter Vk Yandex Mail.ru

Rhett And Link - The Bubble Bullets Song - аккорды и текст, видео

Печатать
Просмотров: 127
The Bubble Bullets Song
Rhett And Link
STOP - STOP and mute
Stop - Stop and fade



Chords:

       D            Gsus2/F#           G              A7
 |---|-O-|---|   |---|---|-O-|   |---|---|-O-|  o|---|---|---|
 |---|---|-O-|   |---|---|-O-|   |---|---|-O-|   |---|-O-|---|
 |---|-O-|---|  o|---|---|---|  o|---|---|---|  o|---|---|---|
o|---|---|---|  o|---|---|---|  o|---|---|---|   |---|-O-|---|
X|---|---|---|  o|---|---|---|   |---|-O-|---|  o|---|---|---|
X|---|---|---|   |---|-O-|---|   |---|---|-O-|  X|---|---|---|
    

                       
Intro & Verse 1 Tab:

      D           Gsus2/F#    G               
e|---------------------------------------------------------------------------| |x6(2x Intro + 4xVerse)
B|----------3-----------3-----------3-----------3----------------------------| |x6(2x Intro + 4xVerse)
G|----------2-----------0-----------0-----------0----------------------------| |x6(2x Intro + 4xVerse)
D|----0----------------------------------------------------------------------| |x6(2x Intro + 4xVerse)
A|---------------------------------------------------------------------------| |x6(2x Intro + 4xVerse)
E|----------------2-----------3----------------------------------------------| |x6(2x Intro + 4xVerse)



Bridge Tab:

       G                   A7                  D
e|-----------3-----3-------------0-----0-------------2-----2-------------3-----3-----|
B|-----------3-----3-------------2-----2-------------3-----3-------------3-----3-----|
G|-----------0-----0-------------0-----0-------------2-----2-------------0-----0-----|
D|-----------0-----0-------------2-----2-------0-----0-----0-------------0-----0-----|
A|-----------2-----2-------0-----0-----0---------------------------------2-----2-----|
E|-----3-----3-----3-----------------------------------------------3-----3-----3-----|

       G                   D                   A7  
e|-----------3-----3-------------2-----2-------------0-----0-----|
B|-----------3-----3-------------3-----3-------------2-----2-----|
G|-----------0-----0-------------2-----2-------------0-----0-----|
D|-----------0-----0-------0-----0-----0-------------2-----2-----|
A|-----------2-----2---------------------------0-----0-----0-----|
E|-----3-----3-----3---------------------------------------------|
Intro:

D Gsus2/F# G x2


Verse 1:

D       Gsus2/F#      G
Hey babycakes I wanna write you a song
D              Gsus2/F#     G
now that we've been on this journey so long
D             Gsus2/F#    G
standing here at the sink scrubbin' away
    D              Gsus2/F#       G
has really made me think I've got somethin' to say



Bridge:

G        A7                                
Hey baby, ketchup and mustard and oatmeal too,
D                      G
 just wash your dishes, don't make me blue
G                               D                        A7
Wash your dishes, or rinse them... or just make an effort



Chorus:

   D            Gsus2/F#    G   
If bubbles were bullets I'd blow you away
    D            Gsus2/F#        G
I'd pop the champagne and make a clean getaway
   D            Gsus2/F#    G
If bubbles were bullets I'd draw you a bath
D           Gsus2/F#        G
Tubfarts as meganukes would deliver my wrath
       A7
But if bubbles were bullets
   G
if that were really true

then babycakes
G          A7       D
I'd take a shot for you
G          A7       D
I'd take a shot for you
G          A7       D 
I'd take a shot for you

-Do the dishes

-It's that simple
Добавлено: 22.09.2015
Другие материалы по этой песне:
  • Аккорды и текст

Страница создана 22.09.2015
http://primanota.ru/rhett-and-link/bubble-bullets-song-chords.htm
Привет, Гость.
Предлагаем пройти революционный курс по гитаре.
Подарок от PrimaNota.Ru, забирай!