PrimaNota.ru - самый крупный в мире бесплатный архив песенных текстов, аккордов, табулатур и нот


Rheostatics - Dope Fiends And Boozehounds - аккорды и текст, видео

Регистрация Запомнить меня
Войти через:  Facebook Google Twitter Vk Yandex Mail.ru

Rheostatics - Dope Fiends And Boozehounds - аккорды и текст, видео

Печатать
Просмотров: 109
Авторы музыки: Martin Tielli, Janet Morassutti, Dave Bidini

Dope Fiends And Boozehounds
Rheostatics
Dope Fiends and Boozehounds
By: Dave Bidini, Janet Morassutti and Martin Tielli
On the albums "Whale Music" and "Double Live"
 
Both are pretty much the same:
 
1) Kevin's way:
 
E-----------------------------------------------------------|
B-----------------------------------------------------------|
G----8--------9-----------8---11--------8-------------------|
D-------9-------------9--------------9--------6-----7-----9-|
A----------7------7---------------7---------0-----0-----0---|
E-0---------------------------------------------------------|
 
 
2) Aaron's way:
 
E ---------0-----0-2-------0-0--------------|
B -------0-----0---------0-----0---------0--|
G -----1---------------1---------1-2-1-2----|
D ---2--------------------------------------|
A ------------------------------------------|
E -0---------0-------0----------------------|
 
 
E
A sick sense of memory
                    A
Runs a river near a road
     E
That travels up the parkway,
                      A
Getting frozen in the snow
      E
Where what you see is what you see...
And only some will know
                        A
Where the ragged people go.
 
Where the boozehounds bay,
                         D     G
By the banks of the reservoir.
E
Crows climb higher
From their old familiar yard.
 
E
The best thing in heaven
Is supposed to be the sun
That shines between two mountains
And melts the Devil's gun,
And what you see is what you see...
And only some will know
                         A
Where the ragged people go.
 
A
Down here on Kipling,
                                D    G
Where the streetlamps light the way, hey,
 
E
There's talk of a reunion
Of the ones who didn't stay.
 
E
Why didn't they stay here
    A                  D     G
And help me shovel the walk?
(Why didn't they stay here?)
 
E
A sick sense of melody
                         A
Is what I hear when I'm alone.
     E
And I love it more than misery,
                        A
And I love it more than home,
 
And I cry 'cause I'm not with it,
                       C#5
Even though I've never been...
          A
Where the dope fiends laugh
And say it's too soon,
         E
And they all go home and listen to
The Dark Side of the Moon.


Dope Fiends ending

E-D
E-C#
E-C-B
E-D
E-C#
E-C
Добавлено: 07.07.2015
Другие материалы по этой песне:
  • Аккорды и текст

Страница создана 07.07.2015
http://primanota.ru/rheostatics/dope-fiends-and-boozehounds-chords.htm
Привет, Гость.
Предлагаем пройти революционный курс по гитаре.
Подарок от PrimaNota.Ru, забирай!