PrimaNota.ru - самый крупный в мире бесплатный архив песенных текстов, аккордов, табулатур и нот


Rhapsody - The Last Angels' Call - текст песни, таба, видео

Регистрация Запомнить меня
Войти через:  Facebook Google Twitter Vk Yandex Mail.ru

Rhapsody - The Last Angels' Call - текст песни, таба, видео

Печатать
Просмотров: 99
Rhapsody - The Last Angels Call 
Symphony of Enchanted Lands part 2: The Dark Secret
Tabbed by Gavin Wood - vag_wood@hotmail.com / www.myspace.com/gavin_eat_cake
If you have any questions or corrections, I'm happy to answer any emails and comments.

 Guitar Legend: 
 | = Palm Mute
 h = Hammer On
 p = Pull Off
 / = Ascending Slide
 ~ = Vibrato 
 ^ = Bend up 

00:00 Intro
Rhythm Guitar:
|-------------------------------|-------------------------------|
|-------------------------------|-------------------------------|
|-7-----------------------------|-------------------------------|
|-7-----------------------------|-4-----------------------------|
|-5-----------------------------|-4-----------------------------|
|-------------------------------|-2-----------------------------|

|-------------------------------|-------------------------------|
|-------------------------------|-------------------------------|
|-------------------------------|-7-----------------------------|
|-7-----------------------------|-7-----------------------------|
|-7-----------------------------|-5-----------------------------|
|-5-----------------------------|-------------------------------|

|-------------------------------|-------------------------------|
|-------------------------------|-------------------------------|
|-10-------7--------------------|-------------------------------|
|-10-------7-------9------6-----|-7-----------7---7-------------|
|-8--------5-------9------6-----|-7-----------7---7-------------|
|------------------7------4-----|-5-----------5---5-------------|

00:00 Intro 
Lead Guitar: 
e||-------------------------------------|
B||--------10---------------10-8--------|
G||-7-9-10-----10-9-7---10-------10-----|
D||-------------------------------------|
A||-------------------------------------|
E||-------------------------------------|

|-----------------------11--10-8--------|
|----8-10-----------10-----------11-----|
|-10------11-----11---------------------|
|-------------12------------------------|
|---------------------------------------|
|---------------------------------------|

|----8-10-12--9-10-12--15--13-12-10---9-10-12-|
|-11------------------------------------------|
|---------------------------------------------|
|---------------------------------------------|
|---------------------------------------------|
|---------------------------------------------|

|-13-11-10----------------------------|--------------|
|----------12-10-9--------12-10-9-10~-|--12----14~---|
|------------------11-9-8-------------|--------------|
|-------------------------------------|--------------|
|-------------------------------------|--------------|
|-------------------------------------|--------------|

00:24 Main Riff
Rhythm Guitar

|-------------------------------|-------------------------------|
|-------------------------------|-------------------------------|
|-7---7---7---7---7---7---7---7-|-7---7---7---7---7---7---7---7-|
|-7---7---7---7---7---7---7---7-|-7---7---7---7---7---7---7---7-|
|-5---5---5---5---5---5---5---5-|-5---5---5---5---5---5---5---5-|
|-------------------------------|-------------------------------|
  |   |   |   |   |   |   |   |   |   |   |   |   |   |   |   |

|-------------------------------|-------------------------------|
|-------------------------------|-------------------------------|
|-------------------------------|-------------------------------|
|-4---4---4---4---4---4---4---4-|-5---5---5---5---5---5---5---5-|
|-4---4---4---4---4---4---4---4-|-5---5---5---5---5---5---5---5-|
|-2---2---2---2---2---2---2---2-|-3---3---3---3---3---3---3---3-|
  |   |   |   |   |   |   |   |   |   |   |   |   |   |   |   |

|-------------------------------|-------------------------------|
|-------------------------------|-------------------------------|
|-------------------------------|-7---7---7---7---7---7---7---7-|
|-7---7---7---7---7---7---7---7-|-7---7---7---7---7---7---7---7-|
|-7---7---7---7---7---7---7---7-|-5---5---5---5---5---5---5---5-|
|-5---5---5---5---5---5---5---5-|-------------------------------|
  |   |   |   |   |   |   |   |   |   |   |   |   |   |   |   |  

|-------------------------------|-------------------------------|
|-------------------------------|-------------------------------|
|---------4-------7-------------|-------------------------------|
|-6-------4-------7------6------|-7-----------7---7-------------|
|-6-------2-------5------6------|-7-----------7---7-------------|
|-4----------------------4------|-5-----------5---5-------------|


00:24 Main Riff 
Lead Guitar: 
e||-------------------------------------|
B||--------10---------------10-8--------|
G||-7-9-10-----10-9-7---10-------10-----|
D||-------------------------------------|
A||-------------------------------------|
E||-------------------------------------|

|-----------------------11--10-8--------|
|----8-10-----------10-----------11-----|
|-10------11-----11---------------------|
|-------------12------------------------|
|---------------------------------------|
|---------------------------------------|

|----8-10-12--9-10-12--15--13-12-10---9-10-12-|
|-11------------------------------------------|
|---------------------------------------------|
|---------------------------------------------|
|---------------------------------------------|
|---------------------------------------------|

|-13-11-10----------------------------|--------------|
|----------12-10-9--------12-10-9-10~-|--12----14~---|
|------------------11-9-8-------------|--------------|
|-------------------------------------|--------------|
|-------------------------------------|--------------|
|-------------------------------------|--------------|

00:36 Verse 
|-------------------------------|-------------------------------|
|-------------------------------|-------------------------------|
|-7-----------------------------|-3-----------------------------|
|-7-----------------------------|-3-----------------------------|
|-5-----------------------------|-5-----------------------------|
|-------------------------------|-------------------------------|

|-------------------------------|-------------------------------|
|--------------3----------------|-------------------------------|
|-5-----------------5----3----2-|-2------------/6~--------------|
|-5-----------------------------|-2------------/6~--------------|
|-3-----------------------------|-0-------------0---------------|
|-------------------------------|-------------------------------|

|-------------------------------|-------------------------------|
|-------------------------------|-------------------------------|
|-6-----------------------------|-2-----------------------------|
|-6-----------------------------|-2-----------------------------|
|-4-----------------------------|-4-----------------------------|
|-------------------------------|-------------------------------|

|-------------------------------|-------------------------------|
|-------------------------------|-------------------------------|
|-4-----------------------------|-------------------------------|
|-4-----------------------------|-6-------------6-4-------7-6-4-|
|-2-----------------------------|-6-----------------7-6-4-------|
|-------------------------------|-4-----------------------------|

00:58 Pre-Chorus
|-------------------------------|-------------------------------|
|-------------------------------|-------------------------------|
|-6-----------------------------|-------------------------------|
|-6--------------6--------------|-8---------------3-------------|
|-4--------------6--------------|-8---------------3-------------|
|----------------4--------------|-6---------------1-------------|

|-------------------------------|-------------------------------|
|-------------------------------|-------------------------------|
|-6-----------------------------|-------------------------------|
|-6--------------6--------------|-8---------------6-------------|
|-4--------------6--------------|-8---------------6-------------|
|----------------4--------------|-6---------------4-------------|

|-------------------------------|
|-------------------------------|
|-------------------------------|
|-6-----------------------------|
|-6-----------------------------|
|-4-----------------------------|

01:09 Chorus
|-------------------------------|-------------------------------|
|-------------------------------|-------------------------------|
|-6-----------------------------|-------------------------------|
|-6-----------------------------|-6-----------------------------|
|-4-----------------------------|-6-----------------------------|
|-------------------------------|-4-----------------------------|

|-------------------------------|-------------------------------|
|-------------------------------|-------------------------------|
|-8-----------------------------|----------------------------5--|
|-8-----------------------------|-8---------------------8----5--|
|-6-----------------------------|-8---------------------8----3--|
|-------------------------------|-6---------------------6-------|

|-------------------------------|-------------------------------|
|-------------------------------|-------------------------------|
|-6-----------------------------|-------------------------------|
|-6-----------------------------|-6-----------------------------|
|-4-----------------------------|-6-----------------------------|
|-------------------------------|-4-----------------------------|

|-------------------------------|-------------------------------|
|-------------------------------|-------------------------------|
|-8--------------9--------------|-10----------------------------|
|-8--------------8--------------|-10----------------------------|
|-6--------------7--------------|-8-----------------------------|
|-------------------------------|-------------------------------|

01:30 Main Riff 
01:44 Verse
02:04 Pre-Chorus
02:16 Chorus

02:37 Solo
Lead Guitar
|-------------------------------|-----6-6---5~--5-5-8^-8^--6~---|
|-6-5-6-7---6~--6-5-6-7---6~----|-6-6---------------------------|
|-------------------------------|-------------------------------|
|-------------------------------|-------------------------------|
|-------------------------------|-------------------------------|
|-------------------------------|-------------------------------|

|-6-7-6-6h7p6---------------------|-------------------------------|
|-------------9~--9-11-9-9h11p9-7~|-7-6-5-6~-------7-6-5-6~-------|
|---------------------------------|-------------------------------|
|---------------------------------|-------------------------------|
|---------------------------------|-------------------------------|
|---------------------------------|-------------------------------|
                                      |  second time   |
|-------------------------------------|----------------|
|-7-6-5-6-----------6h7p6-------------|----------------|
|---------8-6-5-6-8-------8-6-5-------|----------------|
|-------------------------------8-7-8-|--------6-------|
|-------------------------------------|----------------|
|-------------------------------------|----------------|

02:37 Solo
Rhythm Guitar
|-------------------------------|-------------------------------|
|-------------------------------|-------------------------------|
|-------------------------------|----------------3--------------|
|-7--------------8--------------|-3--------------3--------------|
|-7--------------8--------------|-3--------------1--------------|
|-5--------------6--------------|-1-----------------------------|

|-------------------------------|-------------------------------|
|-------------------------------|-------------------------------|
|-------------------------------|-------------------------------|
|-----------------------4-4-3-2-|-------------------------------|
|-5-------5---8---6-------------|-------------------------------|
|-----6--------------6----------|-1---2-1-0-1------2-1-0-1------|

|-------------------------------|
|-------------------------------|
|----------6----10----8----3----|
|----------6----10----8----3----|
|----------4----8-----6----1----|
|-2-1-0-1-----------------------|

|---------------------------------|---------------------------------|
|---------------------------------|---------------------------------|
|---------------------------------|---------------------------------|
|---------------------------------|-----8-------8-------6-------6---|
|---8---8---8---8---9---9---9---9-|---8---8---8---8---8---8---8---8-|
|-6---6---6---6---6---6---6---6---|-6-------6-------6-------6-------|
  | | | | | | | | | | | | | | | |   | | | | | | | | | | | | | | | |

|-------------------------------|-------------------------------|
|-------------------------------|-------------------------------|
|-------------------------------|-------------------------------|
|-----------------------4-4-3-2-|-------------------------------|
|-5-------5---8---6-------------|-------------------------------|
|-----6--------------6----------|-1---2-1-0-1------2-1-0-1------|

|-------------------------------|-------------------------------|
|-------------------------------|-------------------------------|
|----------6----10----8----3----|-------------------------------|
|----------6----10----8----3----|-6-----------------------------|
|----------4----8-----6----1----|-6-----------------------------|
|-2-1-0-1-----------------------|-4-----------------------------|

03:05 Chorus
03:26 Chorus
03:47 Chorus
04:09 Main Riff 

04:34 Outro 
|-------------------------------|
|-------------------------------|
|-7--7--------------------------|
|-7--7--------------------------|
|-5--5--------------------------|
|-------------------------------|

Song Structure: 

00:00 Intro x2
00:24 Main Riff 
00:36 Verse 
00:58 Pre-Chorus
01:09 Chorus
01:30 Main Riff 
01:44 Verse
02:04 Pre-Chorus
02:16 Chorus
02:37 Solo
03:05 Chorus
03:26 Chorus
03:47 Chorus
04:09 Main Riff 
04:34 Outro 

Добавлено: 20.10.2013
Другие материалы по этой песне:
  • Аккорды и текст

Страница создана 18.04.2012
http://primanota.ru/rhapsody/the-last-angels-call-chords.htm
Привет, Гость.
Предлагаем пройти революционный курс по гитаре.
Подарок от PrimaNota.Ru, забирай!