PrimaNota.ru - самый крупный в мире бесплатный архив песенных текстов, аккордов, табулатур и нот


Rgovula - Besmonella Bicycle Bitch - таба

Регистрация Запомнить меня
Войти через:  Facebook Google Twitter Vk Yandex Mail.ru

Rgovula - Besmonella Bicycle Bitch - таба

Печатать
Просмотров: 67
Уроки эстрадного вокала в Санкт-Петербурге
Artist's Name:Rgovula
Song Name:Besmonella Bicycle Bitch
Submitted By: Thathement Knave - Peru

Riff 1

E--------------------------------------------
B--------------------------------------------
G--------------------------------------------
D---------------------------2------4----3h4--
A-----4-------4-----3h4--0----0-0-----2------
E--2-----2-2-----2---------------------------

Riff 2

E---------------------------------------
B---------------------------------------
G---------------------------------------
D------------------------------------2--
A-----------------------------5p0h2-----
E-0--3p0--5p0--3p0--6p0--7p0------------

Verses

E-14------14--------14---14-------------
B---------------------------------------
G---------------------------------------
D------------------------------------2--
A-----------------------------5p0h2-----
E-0--3p0--5p0--3p0--6p0--7p0------------

Chorus

E-14-------14-----------------
B----------13-----------------
G----------13-----------------
D-----------------------------
A-----------------------------
E-0--0--0--0--0--0------------

     
Добавлено: 24.08.2013
Вам также может быть интересно:
Другие материалы по этой песне:
  • Аккорды и текст

Страница создана 24.08.2013
http://primanota.ru/rgovula/besmonella-bicycle-bitch-chords.htm
Привет, Гость.
Предлагаем пройти революционный курс по гитаре.
Подарок от PrimaNota.Ru, забирай!