PrimaNota.ru - самый крупный в мире бесплатный архив песенных текстов, аккордов, табулатур и нот


Rez - Hearts Desire - таба, видео

Регистрация Запомнить меня
Войти через:  Facebook Google Twitter Vk Yandex Mail.ru

Rez - Hearts Desire - таба, видео

Печатать
Просмотров: 67
		   HEART'S DESIRE
                           AS RECORDED BY REZ BAND
                    FROM THE ALBUM 'REACH OF LOVE', 1993.
                           MUSIC BY ROY MONTROY
                   LYRICS BY DAVID ABRAMS AND ROY MONTROY
                     TRANSCRIBED BY DOUG 'THUG' BROWNE
                   dc2browne@undergrad.math.uwaterloo.ca



  /--riff  1-----------------------\
  intro                play 3 times
e:-----------------|----------------|--------|-------------||
B:-----------------|----------------|--------|-------------||
G:-----------------|---------------o|--------|-------------||
D:--10-----9~-----7|-----9---10-9--o|--------|-------2-----||
A:7------7------7--|---7---7--------|-7~-----|-------0--2--||
E:-----------------|----------------|--------|----------0--||



  /-riff 2----------------------------------------------------\
  verse one                      /1.2.3.---------\  /4---------\
e:-------------------------------|----------------||-----------||
B:-------------------------------|----------------||-----------||
G:-------------------------------|---------------o||-----------||
D:----------------------2--h4--2-|-h4------2-----o||-h4---2----||
A:-4--------------------0--h2--0-|-h2------0--2---||-h2---0----||
E:-2------2----2----2------------|------------0---||-----------||




  chorus one                           verse two        chorus 2
e:-------------|--------|------------||----------------||--------------|
B:-------------|--------|------------||----------------||--------------|
G:-play-riff-1-|--------|------------||---play-riff-2--||--play-riff-1-|
D:-three-times-|--------|------2-----||----------------||--seven-times-|
A:-------------|-7~-----|------0--2--||----------------||--------------|
E:-------------|--------|---------0--||----------------||--------------|




                                                                                                                                                                                                            verse 3           chorus 3     
e:--------------------|---------------------------||-------------------------|
B:--------------------|---------------------------||-------------------------|
G:--------------------|---------------------------||-------------------------|
D:---10------9~-----7-|------9-----------------4--||-------------------------|
A:-7-------7------7---|----7---7---3---2-------4--||-------------------------|
E:--------------------|--------------------5---2--||-----2--2--2--2--2--2--2-|
|                      Solo:                                                 |
e:--------------------|---------------------------||-------------------------|
B:--------------------|---------------------------||-------------------------|
G:--------------------|---------------------------||-------------------------|
D:--------------------|---------------------------||-------------------------|
A:--------------------|----------------4--5--7b(9)||--------/9b(10)----------|
E:--------------------|----2-/3--5--7-------------||-------------------------|


                                                      


e:------------------------------|--------------------------------------------|
B:------------------------------|--------------------------------------------|
G:-2----------------------------|--------------------------------------------|
D:-2------2------------------4--|--------------------------------------------|
A:-0------2------3---2-------4--|--------------------------------------------|
E:--------0--------------5---2--|-----2-----2----2-----2-----2-----2----2----|
|                                                                            |
e:------------------------------|--------------------------------------------|
B:-----------------------16b(18)|----16-14-16---14----14-16-14----14---------|
G:-----------------------16b(18)|----16-14-16---14----14-16-14----14---------|
D:------------------------------|------------------16----------16------16-14-|
A:-b(11)-b(9)-7--9--------------|--------------------------------------------|
E:------------------------------|--------------------------------------------|





e:---------------------------|-----------------------------------|
B:---------------------------|-----------------------------------|
G:-------4-------------------|-----------------------------------|
D:-2-----4----------------4--|-----------------------------------|
A:-2-----2------3--2------4--|-----------------------------------|
E:-0------------------5---2--|-----2----2----2---2---2---2---2---|
|                                                                |
|                      /-pinch  harmonics------------\           |
e:----------------------------|----------------------------------|
B:----------------------------|----------------------------------|
G:---------------------16b(18)|-b(18)b(18)b(18)-b(18)-b(18)-b(18)|
D:16----14----16\-------------|----------------------------------|
A:---------16-----------------|----------------------------------|
E:----------------------------|----------------------------------|





e:-----------------------------------------|
B:-----------------------------------------|
G:-2---------------------------------------|
D:-2-----------2----------------------4----|
A:-0-----------2-----------3--2-------4----|
E:-------------0-----------------5----2----|
|                                          |
e:-----------------------------------------|
B:-----------------------------------------|
G:-b(18)-16-14-16----------/16----14----14-|
D:-----------------------------------16----|
A:-----------------------------------------|
E:-----------------------------------------|





e:----------------------------------------------------------------------------
B:----------------------------------------------------------------------------
G:----------------------------------------------------------------------------
D:----------------------------------------------------------------------------
A:----------------------------------------------------------------------------
E:-------------2---------2-------2------------2-----------2--------2----------
|                                                                            
e:----------------------------14----------------------------------------------
B:-------14-17-14----14-17-14----17-14----------------------------------------
G:16b(18)---------16-------------------16---16b(18)-16-14-----14-16b(18)--14--
D:--------------------------------------------------------16------------------
A:----------------------------------------------------------------------------
E:----------------------------------------------------------------------------





e:----------|------------------|--------------------------------------------||
B:----------|------------------|--------------------------------------------|| 
G:----------|-2-----4----------|--------------------2-----------------------||
D:----------|-2-----4----------|--------------------2-------------2---------||
A:----------|-0-----2----------|--------------------0-------------2---------||
E:-2--------|------------------|----------------------------------0---------||
|                                                                           ||
e:----------|------------------|-------------------17b(19)-b(17)-b(19)-b(17)||
B:----------|------------------|--------------------------------------------||
G:----------|------------------|--------------------------------------------||
D:-16-14----|------------------|--------------------------------------------||
A:-------16-|-14~--------------|--------------------------------------------||
E:----------|------------------|--------------------------------------------||





  verse 3           chorus 3
e:---------------||-------------------------------||
B:---------------||-------------------------------||
G:--play-riff-2--||-repeat-riff-1-till-fade-------||
D:---------------||--with-vocal-and-guitar-ad-lib-||
A:---------------||-------------------------------||
E:---------------||-------------------------------||


Lyrics:

verse one
There You hung for all to see,
Broken Man on a twisted tree.
We lowered our eyes in the lowering light
Unnailed the body before the light

chorus:
You are my heart's desire
You set my soul on fire
You're all I need

verse two
Our sin You took and took it well
Repaid the debt drawn when we fell
For us it was life 
For You much worse
Cursed Blessing, Blessed Curse

verse three
There You hung for all to see
Broken Man on a twisted tree
River of Life to quench our thirst
Cursed Blessing, Blessed Curse



Please report any questions, comments or corrections to Thug: 
dc2browne@undergrad.math.uwaterloo.ca


******************************************************************************
******************************************************************************
This TAB transcription was created using TAB MASTER version 1.0
If you enjoy using this program, please consider telling the author
about it: Ofir Zwebner, e-mail: ofirz1@ccsg.tau.ac.il
                    snail-mail: Ehoud 10, Tel Aviv, 69936, Israel

This program is freeware, but it took some work to make it, so
your financial contribution is welcome.
******************************************************************************
******************************************************************************


     
Добавлено: 05.11.2013
Другие материалы по этой песне:
  • Аккорды и текст

Страница создана 05.11.2013
http://primanota.ru/rez/hearts-desire-chords.htm
Привет, Гость.
Предлагаем пройти революционный курс по гитаре.
Подарок от PrimaNota.Ru, забирай!