PrimaNota.ru - самый крупный в мире бесплатный архив песенных текстов, аккордов, табулатур и нот


Reverend Horton Heat - It Hurts Your Daddy Bad - текст песни, таба, видео

Регистрация Запомнить меня
Войти через:  Facebook Google Twitter Vk Yandex Mail.ru

Reverend Horton Heat - It Hurts Your Daddy Bad - текст песни, таба, видео

Печатать
Просмотров: 125
-------------------------------------------------------------------------------
                                 "It Hurts Your Daddy Bad"
                                   Reverend Horton Heat
-------------------------------------------------------------------------------
Song:      It Hurts Your Daddy Bad
Artist:    Reverend Horton Heat
Album:     Spend a Night in the Box 2000
Guitarist: Jim Heath
Transcribed by: Phil Trujeque
E-mail: Phil@Trujeque.com
http://www.youtube.com/user/thephilth

Standard Tuning
210=BPM
4/4

Intro

  E              Eb                 Am             B7
E|0---0---0-0-0--0|-----0---0-0-0-0|0---0---0-0-----|-----------0----||  Play 2x's
B|5---5---5-5-5--4|-----4---4-4-4-0|1---1---1-1-1--0|-----0---0-0-0--||
G|----------------|----------------|2---2---2-2-2--4|-----4---4-4-4--||
D|----------------|----------------|----------------|----------------||
A|----------------|----------------|----------------|----------------||
E|----------------|----------------|----------------|----------------||

**********************************************************************************
  (Hold/sustain chords)

  E              Eb                 Am             B7
E|0-------0--(0)-0|-----0---0---0--|0---0---0---0--2|-----2---2---2-2||  Play 2x's
B|0--(0)-(0)-(0)-0|-----0---0---0--|1---1---1---0--0|-----0---0---0-0||
G|----0--(0)------|----------------|2---2---2------2|-----2---2---2-2|| 
D|2------(2)--2--1|-----1---1---1-1|2---2---2------1|-----1---1---1-1||   
A|----------------|----------------|----------------|----------------||  
E|----------------|----------------|----------------|----------------||
                                                           You're so...      
                           
*********************************************************************************
Verse 1 (played lightly)

  E              Eb                 Am             B7
E|0-~~~~~~~------0|-~~~~~~~~~~~~~--|0-~~~~~~~------2|-~~~~~~~~~~~~~--||  Play 4x's
B|0-~~~~~~~------0|-~~~~~~~~~~~~~--|1-~~~~~~~------0|-~~~~~~~~~~~~~--||
G|----------------|----------------|2-~~~~~~~------2|-~~~~~~~~~~~~~--|| 
D|2-~~~~~~~------1|-~~~~~~~~~~~~~--|2-~~~~~~~------1|-~~~~~~~~~~~~~--||   
A|----------------|----------------|----------------|----------------||  
E|----------------|----------------|----------------|----------------||
 >
V1 hip...                               You're so chic and stylish...
   with...                                   that sexy little...
   smile of yours...                              Tell me just how...
   old are you...                  (turn up guitar volume) You're so...

*********************************************************************************
Verse 2 (forte = played loudly)

  E              Eb                 Am             B7
E|0-------0---0--0|-----0---0---0-0|0---0---0---0--2|-----2---2---2-2||  Play 4x's
B|0-------0---0--0|-----0---0---0-0|1---1---1---1--0|-----0---0---0-0||
G|----0-----------|----------------|2---2---2---2--2|-----2---2---2-2|| 
D|2-------2---2--1|-----1---1---1-1|2---2---2---2--1|-----1---1---1-1||   
A|----------------|----------------|----------------|----------------||  
E|----------------|----------------|----------------|-------------12\||(4th time only)
 <                                                           
V2 chic...                                         painted like a...
   candy clown...                               Or maybe with the...
   junky eyes...                            You're not too young to...
   realize...                             You know full well that it...
*******************************************************************************
Pre-Chorus

  E
E|----------------|----------------|----------------|----------------|
B|----------------|----------------|----------------|----------------|
G|----------------|----------------|----------------|----------------|
D|----------------|----------------|----------------|----------------| 
A|2-------------2-|----------------|2-------------2-|----------------| 
E|0-x-6-x-5-x-3-0-|-x-6--x-5--x-3p0|0-x-6-x-5-x-3-0-|-x-6--x-5--x-3p0|
   (x = open E)
  Hurts!                         It hurts!                        Your...

  E                                [B7(b9)]
E|----------------|----------------|----------------|----------------|
B|----------------|----------------|----------------|----------------|
G|----------------|----------------|--------2---2--5|(5)4-2----------|
D|----------------|----------------|----1-4---4-----|-------4-1------|
A|2-------------2-|----------------|2h3-------------|-----------2-3-2|
E|0-x-6-x-5-x-3-0-|-x-6--x-5--x-3p0|----------------|----------------|
  Daddy...                       So bad...                       It...

  E                                 A(no 3d)         Am
E|----------------|----------------|0---------------|----------------|
B|----------------|----------------|---------------0|1---------------|
G|----------------|----------------|2--------------2|2---------------|
D|----------------|----------------|2--------------2|2---------------|
A|2-------------2-|----------------|0---------------|0---------------|
E|0-x-6-x-5-x-3-0-|-x-6--x-5--x-3-0|----------------|----------------|
  Hurts...                    Your daddy...                       It...

  E                B7
E|----------------|----------------||
B|----------------|4---------------||
G|----------------|2---------------||
D|----------------|4---------------||
A|2-2-2-2-2-2-2-2-|2---------------||
E|0-0-3-0-0-0-3-0-|----------------||
  Hurts   your     daddy...

*******************************************************************************
Chorus

  E              Eb                 Am             B7
E|0---0---0---0--0|-----0---0---0-0|0---0---0---0--2|-----2---2---2-2||  Play 2x's
B|0---0---0---0--0|-----0---0---0-0|1---1---1---1--0|-----0---0---0-0||
G|----------------|----------------|2---2---2---2--2|-----2---2---2-2|| 
D|2---2---2---2--1|-----1---1---1-1|2---2---2---2--1|-----1---1---1-1||   
A|----------------|----------------|----------------|----------------||  
E|----------------|----------------|----------------|----------------||
  Bad.                                          It hurts your daddy...
  Bad.                                                    You're so...
*******************************************************************************
Verse 3 (mP)

  E              Eb                 Am             B7
E|0-~~~~~~~------0|-~~~~~~~~~~~~~--|0-~~~~~~~------2|-~~~~~~~~~~~~~--||  Play 4x's
B|0-~~~~~~~------0|-~~~~~~~~~~~~~--|1-~~~~~~~------0|-~~~~~~~~~~~~~--||
G|----------------|----------------|2-~~~~~~~------2|-~~~~~~~~~~~~~--|| 
D|2-~~~~~~~------1|-~~~~~~~~~~~~~--|2-~~~~~~~------1|-~~~~~~~~~~~~~--||   
A|----------------|----------------|----------------|----------------||  
E|----------------|----------------|----------------|----------------||
 >
V3 cool...                                  Your boyfriend thinks that...
   he's the star...                      There's rumors of your...
   drug abuse...                       Bad girls always seem to...
   make the news...                (turn up guitar volume) You're so...

*********************************************************************************
Verse 4 (forte = played loudly)

  E              Eb                 Am             B7
E|0-------0---0--0|-----0---0---0-0|0---0---0---0--2|-----2---2---2-2||  Play 4x's
B|0-------0---0--0|-----0---0---0-0|1---1---1---1--0|-----0---0---0-0||
G|----0-----------|----------------|2---2---2---2--2|-----2---2---2-2|| 
D|2-------2---2--1|-----1---1---1-1|2---2---2---2--1|-----1---1---1-1||   
A|----------------|----------------|----------------|----------------||  
E|----------------|----------------|----------------|-------------12\||(4th time only)
 <                                                           
V4 in...                                   You're part of an ex--...
   -clusive crowd...                         They dress you in their...
   fantasies...                           Use you up until you're...
   twenty-three...                      They know full well that it...
*********************************************************************************
Pre-Chorus
  E
E|----------------|----------------|----------------|----------------|
B|----------------|----------------|----------------|----------------|
G|----------------|----------------|----------------|----------------|
D|----------------|----------------|----------------|----------------| 
A|2-------------2-|----------------|2-------------2-|----------------| 
E|0-x-6-x-5-x-3-0-|-x-6--x-5--x-3p0|0-x-6-x-5-x-3-0-|-x-6--x-5--x-3p0|
  Hurts!                         It hurts!                        Your...

  E                                [B7(b9)]
E|----------------|----------------|----------------|----------------|
B|----------------|----------------|----------------|----------------|
G|----------------|----------------|--------2---2--5|(5)4-2----------|
D|----------------|----------------|----1-4---4-----|-------4-1------|
A|2-------------2-|----------------|2h3-------------|-----------2-3-2|
E|0-x-6-x-5-x-3-0-|-x-6--x-5--x-3p0|----------------|----------------|
  Daddy...                       So bad...                       It...

  E                                 A(no 3d)         Am
E|----------------|----------------|0---------------|----------------|
B|----------------|----------------|---------------0|1---------------|
G|----------------|----------------|2--------------2|2---------------|
D|----------------|----------------|2--------------2|2---------------|
A|2-------------2-|----------------|0---------------|0---------------|
E|0-x-6-x-5-x-3-0-|-x-6--x-5--x-3p0|----------------|----------------|
  Hurts...                    Your daddy...                       It...

  E                B7
E|----------------|----------------||
B|----------------|4---------------||
G|----------------|2---------------||
D|----------------|4---------------||
A|2-2-2-2-2-2-2-2-|2---------------||
E|0-0-3-0-0-0-3-0-|----------------||
  Hurts   your     daddy...

*******************************************************************************
Chorus

  E              Eb                 Am             B7
E|0---0---0---0--0|-----0---0---0-0|0---0---0---0--2|-----2---2---2-2||  Play 2x's
B|0---0---0---0--0|-----0---0---0-0|1---1---1---1--0|-----0---0---0-0||
G|----------------|----------------|2---2---2---2--2|-----2---2---2-2|| 
D|2---2---2---2--1|-----1---1---1-1|2---2---2---2--1|-----1---1---1-1||   
A|----------------|----------------|----------------|----------------||  
E|----------------|----------------|----------------|------------/12\||(2d time only)
  Bad.                                          It hurts your daddy...
  Bad.                                                          
*******************************************************************************
Solo
  E
E|----------------|----------------|----------------|----------------|
B|----------------|----------------|----------------|----------------|
G|----------------|----------------|----------------|----------------|
D|----------------|----------------|----------------|----------------| 
A|2-------------2-|----------------|2-------------2-|----------------| 
E|0-x-6-x-5-x-3-0-|-x-6--x-12-x-6-x|0-x-6-x-5-x-3-0-|-x-6--x-12-x-6-x|
  Go!

  E                                [B7(b9)]
E|----------------|----------------|---------------|------------10-11|
B|----------------|----------------|---------------|----10-11-12-----|
G|----------------|----------------|--------2---4-5|/12--------------|
D|----------------|----------------|---1--4---4----|-----------------|
A|2-------------2-|----------------|2h3------------|-----------------|
E|0-x-6-x-5-x-3-0-|-x-6--x-5--x-3-0|---------------|-----------------|

E|12-------------|---------------||
B|---------------|------------X--|| (snare)
G|---------------|---------------||
D|---------------|---------------||
A|---------------|---------------||
E|---------------|---------------||

*******************************************************************************
Repeat Intro:

  E              Eb                 Am             B7
E|0---0---0-0-0--0|-----0---0-0-0-0|0---0---0-0-----|-----------0----||  Play 2x's
B|5---5---5-5-5--4|-----4---4-4-4-0|1---1---1-1-1--0|-----0---0-0-0--||
G|----------------|----------------|2---2---2-2-2--4|-----4---4-4-4--||
D|----------------|----------------|----------------|----------------||
A|----------------|----------------|----------------|----------------||
E|----------------|----------------|----------------|----------------||
                                                             You're so...
*******************************************************************************
Verse 5 (mP)

  E              Eb                 Am             B7
E|0-~~~~~~~------0|-~~~~~~~~~~~~~--|0-~~~~~~~------2|-~~~~~~~~~~~~~--||  Play 4 x's
B|0-~~~~~~~------0|-~~~~~~~~~~~~~--|1-~~~~~~~------0|-~~~~~~~~~~~~~--||
G|----------------|----------------|2-~~~~~~~------2|-~~~~~~~~~~~~~--|| 
D|2-~~~~~~~------1|-~~~~~~~~~~~~~--|2-~~~~~~~------1|-~~~~~~~~~~~~~--||   
A|----------------|----------------|----------------|----------------||  
E|----------------|----------------|----------------|----------------||
 >                                  
V5 chic...                                 On the runway or in...
   catalogs...                (turn up volume) N-Y-C or maybe...
   Paris, France...                  This ain't no Paris, Texas...
   senior dance...                                             an' it...

*********************************************************************************
Pre-Chorus
  E
E|----------------|----------------|----------------|----------------|
B|----------------|----------------|----------------|----------------|
G|----------------|----------------|----------------|----------------|
D|----------------|----------------|----------------|----------------| 
A|2-------------2-|----------------|2-------------2-|----------------| 
E|0-x-6-x-5-x-3-0-|-x-6--x-5--x-3p0|0-x-6-x-5-x-3-0-|-x-6--x-5--x-3p0|
  Hurts!                         It hurts!                        Your...

  E                                [B7(b9)]
E|----------------|----------------|----------------|----------------|
B|----------------|----------------|----------------|----------------|
G|----------------|----------------|--------2---2--5|(5)4-2----------|
D|----------------|----------------|----1-4---4-----|-------4-1------|
A|2-------------2-|----------------|2h3-------------|-----------2-3-2|
E|0-x-6-x-5-x-3-0-|-x-6--x-5--x-3p0|----------------|----------------|
  Daddy...                       So bad...                       It...

  E                                 A(no 3d)         Am
E|----------------|----------------|0---------------|----------------|
B|----------------|----------------|---------------0|1---------------|
G|----------------|----------------|2--------------2|2---------------|
D|----------------|----------------|2--------------2|2---------------|
A|2-------------2-|----------------|0---------------|0---------------|
E|0-x-6-x-5-x-3-0-|-x-6--x-5--x-3p0|----------------|----------------|
  Hurts...                    Your daddy...                       It...

  E                B7
E|--0-------------|----------------||
B|--0-------------|4---------------||
G|----------------|2---------------||
D|--2-------------|4---------------||
A|2-2-------------|2---------------||
E|0-0-3-0-0-0-3-0-|----------------||
  Hurts   your     daddy...

*******************************************************************************
Chorus

  E              Emaj7              Am             B7
E|0---0---0---0--0|-----0---0---0-0|0---0---0---0--2|-----2---2---2-2||  Play 4x's
B|0---0---0---0--0|-----0---0---0-0|1---1---1---1--0|-----0---0---0-0||
G|----------------|----------------|2---2---2---2--2|-----2---2---2-2|| 
D|2---2---2---2--1|-----1---1---1-1|2---2---2---2--1|-----1---1---1-1||   
A|----------------|----------------|----------------|----------------||  
E|----------------|----------------|----------------|----------------||
  bad.                                          It hurts your daddy...
  bad.                                     You're daddy's little...
  girl.                                         It hurts your daddy...
  bad.                                           Daddy's little...

  E              Emaj7              Am             B7
E|0---0---0-0-0--0|-----0---0-0-0-0|0---0---0-0-----|-----------0----||  Play 2x's
B|5---5---5-5-5--4|-----4---4-4-4-0|1---1---1-1-1--0|-----0---0-0-0--||
G|----------------|----------------|2---2---2-2-2--4|-----4---4-4-4--||
D|----------------|----------------|----------------|----------------||
A|----------------|----------------|----------------|----------------||
E|----------------|----------------|----------------|----------------||
  girl...                                         Daddy's little...
  girl...                                      It hurts your daddy...

  E              Emaj7              Am             B7
E|0---0---0---0--0|-----0---0---0-0|0---0---0---0--2|-----2---2---2-2||  Play 2x's
B|0---0---0---0--0|-----0---0---0-0|1---1---1---1--0|-----0---0---0-0||
G|----------------|----------------|2---2---2---2--2|-----2---2---2-2|| 
D|2---2---2---2--1|-----1---1---1-1|2---2---2---2--1|-----1---1---1-1||   
A|----------------|----------------|----------------|----------------||  
E|----------------|----------------|----------------|----------------||
  bad.                                          It hurts your daddy...
  bad.                                    
*******************************************************************************
Outro

  E
E|----------------|----------------|----------------|----------------|
B|----------------|----------------|----------------|----------------|
G|----------------|----------------|----------------|----------------|
D|----------------|----------------|----------------|----------------| 
A|2-------------2-|----------------|2-------------2-|----------------| 
E|0-x-6-x-5-x-3-0-|-x-6--x-12-x-6-x|0-x-6-x-5-x-3-0-|-x-6--x-12-x-6-x|

 [B7(b9)]
E|------------|------------10-11-12||
B|------------|----10-11-12--------||
G|------2-4-5/|/12-----------------||
D|---1-4-4----|--------------------||
A|2h3---------|--------------------||
E|------------|--------------------||

*******************************************************************************
*******************************************************************************
Lyrics

You're so hip --- You're so chic and stylish with...
That sexy little smile of yours --- Tell me just how old are you

You're so chic --- Painted like a candy clown
Or maybe with the junky eyes --- You're not too young to realize
You know full well that it hurts

It hurts, your daddy, so bad
It hurts, your daddy
It hurts your daddy bad
It hurts your daddy bad

You're so cool
Your boyfriend thinks that he's the star
There's rumors of your drug abuse
Bad girls always seem to make the news

You're so in
You're part of an exclusive crowd
They dress you in their fantasies
Use you up until you're twenty-three
They know full well that it hurts

It hurts, your daddy, so bad
It hurts, your daddy
It hurts your daddy bad
It hurts your daddy bad

Go!

You're so chic
On the runway or in catalogs
N-Y-C or maybe Paris, France
This ain't no Paris, Texas senior dance
And it hurts

It hurts, your daddy, so bad
It hurts, your daddy
It hurts your daddy bad
It hurts your daddy bad
You're daddy's little girl
It hurts your daddy bad
Daddy's little girl
Daddy's little girl
It hurts your daddy bad
It hurts your daddy bad

Yeah! Go!
Go!

*******************************************************************************
| Legend
| /   slide up
| \   slide down
| h   hammer-on
| p   pull off
| ~   vibrato with Bigsby
| <   volume swell up
| >   volume swell down
| x   Mute note
*******************************************************************************
Добавлено: 25.11.2015
Другие материалы по этой песне:
  • Аккорды и текст

Страница создана 05.07.2012
http://primanota.ru/reverend-horton-heat/it-hurts-your-daddy-bad-chords.htm
Привет, Гость.
Предлагаем пройти революционный курс по гитаре.
Подарок от PrimaNota.Ru, забирай!