PrimaNota.ru - самый крупный в мире бесплатный архив песенных текстов, аккордов, табулатур и нот


Reverend Horton Heat - Big Little Baby - текст песни, таба, видео

Регистрация Запомнить меня
Войти через:  Facebook Google Twitter Vk Yandex Mail.ru

Reverend Horton Heat - Big Little Baby - текст песни, таба, видео

Печатать
Просмотров: 233
hey guys it seems there are not enought tabs for the reverend on here or anywhere for 
that matter this one is for the song off their second album the full custom gospel sounds 
of the reverend horton heat
the strum patterns are not exact they are just basic voicings you figure out the rythym 
its not hard most of this song is in that chuck berry boogie woogie pattern
Verse/Chorus
E-3-x---8--8----3--5-3-3-|
A-5-x---10-10---5--5-3-5-|
D-5-x---10-12---5--7-5-5-|
G------------8--3-7-5----|
B------------8--3--------|
e------------8--3--------|

Solo
the solo is pretty simple its just kinda made up as you go along there is one riff that 
repeats a couple of times and then just some sliding and a little work in the G major box
E-33333--------------------------------333333---------------|
A-------333333-555555-------------------------333333-555555-|
D-----------------------------------------------------------|
G--------------------33/66-3/6-6/8-8/10---------------------|
B--------------------33/66-3/6-6/8-8/10---------------------|
e--------------------33/66-3/6-6/8-8/10---------------------|

Lyrics
Well, I got a sweet baby who's six foot tall
Well, she's a full grown woman who's got it all
Big little baby, big little baby

Her heart is as big as her feet are long
But she's not afraid to fight someone who does me wrong
Big little baby, big little baby

She sure a female who runs up the scale
She's a fillin' in as pretty as a girl can be
But when she's wearin' high heels she is six foot three

 Big little baby, big little baby
She's as cute as she can be But she's tall as a tree
Big little baby

Let it roll. Feels good!!!
I got a sweet baby who's six foot tall
But she's a full grown woman who's got it all
Big little baby, big little baby

She's as cute as she can be
But she's taller than me
Big big big little baby
Big big big little baby

She's as cute as she can be
But she's taller than me
Big big big a-little baby
Добавлено: 27.09.2013
Другие материалы по этой песне:
  • Аккорды и текст

Страница создана 12.03.2012
http://primanota.ru/reverend-horton-heat/big-little-baby-chords.htm
Привет, Гость.
Предлагаем пройти революционный курс по гитаре.
Подарок от PrimaNota.Ru, забирай!