PrimaNota.ru - самый крупный в мире бесплатный архив песенных текстов, аккордов, табулатур и нот


Reverend & The Makers - Sex With The Ex - аккорды и текст, таба, видео

Регистрация Запомнить меня
Войти через:  Facebook Google Twitter Vk Yandex Mail.ru

Reverend & The Makers - Sex With The Ex - аккорды и текст, таба, видео

Печатать
Просмотров: 116
Уроки эстрадного вокала в Санкт-Петербурге
Авторы музыки: Jon McClure
Авторы текста: Jon McClure
Sex With The Ex
Reverend & The Makers
-------------------------------------------------------------------------------
                             Sex with the ex-The Reverend and the Makers
-------------------------------------------------------------------------------
Tabbed by:Jarvie
Email:

Tuning:Normal D shape cords as shown 
Intro pICK THE CORDS
       D          D7M          G             Bb
e|-----2-----------5-----------7-------------10------------------------------|
B|-----3-----------7-----------8------------11-------------------------------|
G|-----2-----------6-----------7-------------10------------------------------|
D|-----0-----------0------------0-------------0------------------------------|
A|---------------------------------------------------------------------------|
E|---------------------------------------------------------------------------|

e|---------------------------------------------------------------------------|
B|---------------------------------------------------------------------------|
G|---------------------------------------------------------------------------|
D|---------------------------------------------------------------------------|
A|---------------------------------------------------------------------------|
E|---------------------------------------------------------------------------|
   Refrain  D                              D7M  
e|----------2-------------------------------2--------------------------------|
B|-----------3------------------------------2--------------------------------|
G|-----------2------------------------------2--------------------------------|
D|---------------------------------------------------------------------------|
A|---------------------------------------------------------------------------|
E|---------------------------------------------------------------------------|
   He never contemplated bumping into you,
e|---------------------------------------------------------------------------|
B|---------------------------------------------------------------------------|
G|---------------------------------------------------------------------------|
D|---------------------------------------------------------------------------|
A|---------------------------------------------------------------------------|
E|---------------------------------------------------------------------------|

 
      D            
e|----5--------5---7---8---7--------------------------------------------------|
B|-----7--------7--7---7----7-------------------------------------------------|
G|------7--------7--7--7-----7------------------------------------------------|
D|---------------------------------------------------------------------------|
A|---------------------------------------------------------------------------|
E|---------------------------------------------------------------------------|
     A Free ride on a guilt trip
e|---------------------------------------------------------------------------|
B|---------------------------------------------------------------------------|
G|---------------------------------------------------------------------------|
D|---------------------------------------------------------------------------|
A|---------------------------------------------------------------------------|
E|---------------------------------------------------------------------------|
  Verse 1
D
Like in the hall of mirrors,
       D7M  
You look different today
     G
He saw you coming out of Etam
           Bb
and it struck him how you'd changed
          D
Was it that you look slimmer?
           D7M  
Or had you dyed your hair?
   G
As you were feigning your indifference
        Bb
Making out like you didn't care

Refrain
D
He never contemplated bumping into you
D7M  
How's your mother now? What you been up to?
D
Just to see you sets him off
D7M                                               G  A
A chance encounter with someones he loved so dearly

Verse 2      D
Although it left him bitter
         D7M  
He still fancies you
    G
Although he's been around a bit since
        Bb
Nobody does it like you do
          D
He tells you, you look fitter
            D7M  
Than when he saw you last
 G
Theres still something there between you 
   Bb
Despite the months thats past

Refrain
D
He never contemplated bumping into you
D7M  
How's your mother now? What you been up to?
    D
Just to see you sets him off
D7M                                               G  A
A chance encounter with someone he loved so dearly
G                                                 
And You didn't take no cajoling, and then your are
            A
Rolling around on his livingroom floor
G
Once hes been in your knickers
                         A
The rows and the bickers they didn't matter so much anymore
        D
And I've often heard it said
   D7M  
that You can't be friends once you've been to bed
D
And just to see you sets me off
 D7M                                            G  A
A chance encounter with some one I loved so dearly
D
A free Ride on a guilt trip

| /  slide up
| \  slide down
| h[/ch  hammer-on
| p  pull-off
| ~  vibrato
| +  harmonic
| x  Mute note
===============================================================================
Добавлено: 30.04.2012
Другие материалы по этой песне:
  • Аккорды и текст

Страница создана 02.04.2012
http://primanota.ru/reverend-and-the-makers/sex-with-the-ex-chords.htm
Привет, Гость.
Предлагаем пройти революционный курс по гитаре.
Подарок от PrimaNota.Ru, забирай!