PrimaNota.ru - самый крупный в мире бесплатный архив песенных текстов, аккордов, табулатур и нот


Reveille - Look At Me Now - текст песни, таба, видео

Регистрация Запомнить меня
Войти через:  Facebook Google Twitter Vk Yandex Mail.ru

Reveille - Look At Me Now - текст песни, таба, видео

Печатать
Просмотров: 196
Song: LOOK AT ME NOW
Artist: REVEILLE
Album: BLEED THE sKY

Tuning: Db Ab Db Gb Bb Eb

Another great Reveille song. This one is fairly difficult to get the timing
right, but it sounds great once you get the hang of it. Once again I
couldn't find any decent tabs of this song, so this is how I play it.
It sounds 100% to me at least. Good luck friends!


INTRO

Eb|--------------------------------|
Bb|--------------------------------|
Gb|-----------0h2-----0h2-----0h2--|
Db|--0-0—-0h3-----0h3-----0h3------| x3
Ab|--0-0---------------------------|
Db|--0-0---------------------------|

Eb|------------------|
Bb|------------------|
Gb|------------------|
Db|------------------| x1
Ab|--4-4-4/8-8-8888--|
Db|------------------|

Eb|--------------------------------|
Bb|--------------------------------|
Gb|-----------0h2-----0h2-----0h2--|
Db|--0-0—-0h3-----0h3-----0h3------| x3
Ab|--0-0---------------------------|
Db|--0-0---------------------------|

Eb|------------------|
Bb|------------------|
Gb|------------------|
Db|------------------| x1
Ab|--4-4-4/8-8-8888--|
Db|------------------|


VERSE ONE

Eb|--------------------------------|
Bb|--------------------------------|
Gb|-----------0h2-----0h2-----0h2--|
Db|--0-0—-0h3-----0h3-----0h3------| x3
Ab|--0-0---------------------------|
Db|--0-0---------------------------|

Eb|------------------|
Bb|------------------|
Gb|------------------|
Db|------------------| x1
Ab|--4-4-4/8-8-8888--|
Db|------------------|

Eb|--------------------------------|
Bb|--------------------------------|
Gb|-----------0h2-----0h2-----0h2--|
Db|--0-0—-0h3-----0h3-----0h3------| x3
Ab|--0-0---------------------------|
Db|--0-0---------------------------|

Eb|-------|
Bb|-------|
Gb|-------|
Db|--0-0--| x1
Ab|--0-0--|
Db|--0-0--|


CHORUS

Eb|-----------------------------------------------------------|
Bb|-----------------------------------------------------------|
Gb|-----------------------------------------------------------|
Db|--0-0-0h8p7-0h8p7-0h5h7-0h5h7-0-0-0h8p7-0h8p7-0h3h5-0h3h5--|
Ab|--0-0-0h8p7-0h8p7-0h5h7-0h5h7-0-0-0h8p7-0h8p7-0h3h5-0h3h5--|
Db|--0-0-0h8p7-0h8p7-0h5h7-0h5h7-0-0-0h8p7-0h8p7-0h3h5-0h3h5--|

Eb|-----------------------------------------------------------|
Bb|-----------------------------------------------------------|
Gb|-----------------------------------------------------------|
Db|--0-0-0h8p7-0h8p7-0h5h7-0h5h7-33333-3-11111-7--------------| x2
Ab|--0-0-0h8p7-0h8p7-0h5h7-0h5h7-33333-3-11111-7--------------|
Db|--0-0-0h8p7-0h8p7-0h5h7-0h5h7-33333-3-11111-7--------------|


VERSE TWO

Eb|--------------------------------|
Bb|--------------------------------|
Gb|-----------0h2-----0h2-----0h2--|
Db|--0-0—-0h3-----0h3-----0h3------| x5
Ab|--0-0---------------------------|
Db|--0-0---------------------------|

Eb|------------------|
Bb|------------------|
Gb|------------------|
Db|------------------| x1
Ab|--4-4-4/8-8-8888--|
Db|------------------|

Eb|--------------------------------|
Bb|--------------------------------|
Gb|-----------0h2-----0h2-----0h2--|
Db|--0-0—-0h3-----0h3-----0h3------| x3
Ab|--0-0---------------------------|
Db|--0-0---------------------------|

Eb|-------|
Bb|-------|
Gb|-------|
Db|--0-0--| x1
Ab|--0-0--|
Db|--0-0--|


CHORUS

Eb|-----------------------------------------------------------|
Bb|-----------------------------------------------------------|
Gb|-----------------------------------------------------------|
Db|--0-0-0h8p7-0h8p7-0h5h7-0h5h7-0-0-0h8p7-0h8p7-0h3h5-0h3h5--|
Ab|--0-0-0h8p7-0h8p7-0h5h7-0h5h7-0-0-0h8p7-0h8p7-0h3h5-0h3h5--|
Db|--0-0-0h8p7-0h8p7-0h5h7-0h5h7-0-0-0h8p7-0h8p7-0h3h5-0h3h5--|

Eb|-----------------------------------------------------------|
Bb|-----------------------------------------------------------|
Gb|-----------------------------------------------------------|
Db|--0-0-0h8p7-0h8p7-0h5h7-0h5h7-33333-3-11111-7--------------| x2
Ab|--0-0-0h8p7-0h8p7-0h5h7-0h5h7-33333-3-11111-7--------------|
Db|--0-0-0h8p7-0h8p7-0h5h7-0h5h7-33333-3-11111-7--------------|


INTERLUDE

Eb|-----------------------------------------------------------|
Bb|-----------------------------------------------------------|
Gb|-----------------------------------------------------------|
Db|--0--------------------------------------------------------| x1
Ab|--0--------------------------------------------------------|
Db|--0--------------------------------------------------------|


BREAKDOWN

Eb|------------------------------------------|
Bb|------------------------------------------|
Gb|------------------------------------------|
Db|--1--/6-0-0--000-0h2h3-0h6-0-0--000--1----| x1
Ab|--1--/6-0-0--000-0h2h3-0h6-0-0--000--1----|
Db|--1--/6-0-0--000-0h2h3-0h6-0-0--000--1----|

Eb|--------------------------------------|
Bb|--------------------------------------|
Gb|--------------------------------------|
Db|--6-0-0--000-0h2h3-0h6-0-0--000--1----| x2
Ab|--6-0-0--000-0h2h3-0h6-0-0--000--1----|
Db|--6-0-0--000-0h2h3-0h6-0-0--000--1----|

Eb|---------------------------------------|
Bb|---------------------------------------|
Gb|---------------------------------------|
Db|--6-0-0--000-0h2h3-0h6-0-0--000--1-11--| x1
Ab|--6-0-0--000-0h2h3-0h6-0-0--000--1-11--|
Db|--6-0-0--000-0h2h3-0h6-0-0--000--1-11--|


FILL

Eb|--------------------------------|
Bb|--------------------------------|
Gb|-----------0h2-----0h2-----0h2--|
Db|--0-0—-0h3-----0h3-----0h3------| x3
Ab|--0-0---------------------------|
Db|--0-0---------------------------|

Eb|-------|
Bb|-------|
Gb|-------|
Db|--0----| x1
Ab|--0----|
Db|--0----|


CHORUS

Eb|-----------------------------------------------------------|
Bb|-----------------------------------------------------------|
Gb|-----------------------------------------------------------|
Db|--0-0-0h8p7-0h8p7-0h5h7-0h5h7-0-0-0h8p7-0h8p7-0h3h5-0h3h5--|
Ab|--0-0-0h8p7-0h8p7-0h5h7-0h5h7-0-0-0h8p7-0h8p7-0h3h5-0h3h5--|
Db|--0-0-0h8p7-0h8p7-0h5h7-0h5h7-0-0-0h8p7-0h8p7-0h3h5-0h3h5--|

Eb|-----------------------------------------------------------|
Bb|-----------------------------------------------------------|
Gb|-----------------------------------------------------------|
Db|--0-0-0h8p7-0h8p7-0h5h7-0h5h7-33333-3-11111-7--------------| x2
Ab|--0-0-0h8p7-0h8p7-0h5h7-0h5h7-33333-3-11111-7--------------|
Db|--0-0-0h8p7-0h8p7-0h5h7-0h5h7-33333-3-11111-7--------------|


OUTRO

Eb|-------|
Bb|-------|
Gb|-------|
Db|--0-0--| x1
Ab|--0-0--|
Db|--0-0--|


If you have any questions or queries, etc. regarding this or any of my
other tabs then feel free to email me at:
killboytv@yahoo.com.au

Thanks folks.
Добавлено: 15.07.2012
Другие материалы по этой песне:

Страница создана 13.06.2012
http://primanota.ru/reveille/look-at-me-now-chords.htm
Привет, Гость.
Предлагаем пройти революционный курс по гитаре.
Подарок от PrimaNota.Ru, забирай!