PrimaNota.ru - самый крупный в мире бесплатный архив песенных текстов, аккордов, табулатур и нот


Rev Theory - Loaded Gun - таба, видео

Регистрация Запомнить меня
Войти через:  Facebook Google Twitter Vk Yandex Mail.ru

Rev Theory - Loaded Gun - таба, видео

Печатать
Просмотров: 158
                       Loaded Gun/Rev Theory/Justice

Tabbed by: grentis
Tuning: DADGBE
PLEASE rate and leave feedback.  That would be greatly appreciated!
*NOTE: there are parts in this song that require a wah pedal, and unfortunately I do not
own one.  Those parts will have to be included in the near future... sorry.

*First update 9/7/11

b -- bend
r -- release
. -- muted note
~ -- vibrato

Intro
Guitar 1:
E---------------------------------|
B---------------------------------|
G---------------------------------|
D-5-3---0-3---0-3---5-0---0-------|  x4
A-5-3---0-3---0-3---5-0---0-------|
D-5-3---0-3---0-3---5-0---0-------|

Guitar 2:
Even though the wah pedal comes into play here, you can still tell that the same notes
are being played plus the effect.

Verse
Guitar 1:
E---------------------------------|
B---------------------------------|
G---------------------------------|
D-5/7---5/7---5/7---5/7-----------|  x4
A-3/5---3/5---3/5---3/5-----------|
D-----0-----0-----0-----0-3b4r3---|
      .     .     .     .

Guitar 2: nothing

Guitar 1:
E---------------------------------|
B---------------------------------|
G---------------------------------|
D-5-5-5-5-5-5-5-5-5-8-8-8-8-8-8-8-|
A-5-5-5-5-5-5-5-5-5-8-8-8-8-8-8-8-|
D-5-5-5-5-5-5-5-5-5-8-8-8-8-8-8-8-|

Guitar 2:
E---------------------------------|
B---------------------------------|
G---------------------------------|
D-5b(slowly bend til next segment)
A---------------------------------|
D---------------------------------|

Guitar 1:
E---------------------------------|
B---------------------------------|
G---------------------------------|
D-5-3---0-3---0-3---5-0---0-------|
A-5-3---0-3---0-3---5-0---0-------|
D-5-3---0-3---0-3---5-0---0-------|

Guitar 2: nothing

Guitar 1:
E-------------------------------------------------|
B-------------------------------------------------|
G-------------------------------------------------|
D-5-5-5-5-5-5-5-5-5-8-8-8-8-8-8-8-8-8-8-8-8-8-8-8-|
A-5-5-5-5-5-5-5-5-5-8-8-8-8-8-8-8-8-8-8-8-8-8-8-8-|
D-5-5-5-5-5-5-5-5-5-8-8-8-8-8-8-8-8-8-8-8-8-8-8-8-|

Guitar 2:
E-------------------------------------------------|
B-------------------------------------------------|
G-------------------------------------------------|
D-5b(slowly bend til chorus begins)---------------|
A-------------------------------------------------|
D-------------------------------------------------|

Chorus
Guitar 1:
E-----------------------------------------------------------------|
B-----------------------------------------------------------------|
G-----------------------------------------------------------------|
D-0---0---0---0---3---3---3---3---3---3---3---3---5-5-5-5-5-5-5/7-|  x2
A-0---0---0---0---1---1---1---1---3---3---3---3---3-3-3-3-3-3-3-5-|
D-0---0---0---0-------------------3---3---3---3-------------------|

Guitar 2:
E-10------10------10------10------10------10------10------10------|
B-----10------10------10------10------10------10------10------10--|
G-----------------------------------------------------------------|
D-----------------------------------------------------------------|  x2
A-----------------------------------------------------------------|
D-----------------------------------------------------------------|

Guitar 1:
E-----------------------------------------------------------------|
B-----------------------------------------------------------------|
G-----------------------------------------------------------------|
D-0-0-0-0-0-0-0-0-3-3-3-3-3-3-3-3-3-3-3-3-3-3-3-3-1-1-1-1-1-1-1-1-|
A-0-0-0-0-0-0-0-0-1-1-1-1-1-1-1-1-3-3-3-3-3-3-3-3-1-1-1-1-1-1-1-1-|
D-0-0-0-0-0-0-0-0-----------------3-3-3-3-3-3-3-3-1-1-1-1-1-1-1-1-|
                                                  . .

Guitar 2:
E-10------10------10------10------10------10------10------10------|
B-----10------10------10------10------10------10------10------10--|
G-----------------------------------------------------------------|
D-----------------------------------------------------------------|
A-----------------------------------------------------------------|
D-----------------------------------------------------------------|

Guitar 1:
E-----------------------------------------------------------------|
B-----------------------------------------------------------------|
G-----------------------------------------------------------------|
D-3-3-3-3-3-3-3-3-2-2-2-2-2-2-2-2-5-------------------------------|
A-1-1-1-1-1-1-1-1-0-0-0-0-0-0-0-0-5-------------------------------|
D---------------------------------5-------------------------------|

Guitar 2:
E-10------10------10------10------10------10------10------10------|
B-----10------10------10------10------10------10------10------10--|
G-----------------------------------------------------------------|
D-----------------------------------------------------------------|
A-----------------------------------------------------------------|
D-----------------------------------------------------------------|

Solo fill
Guitar 1: (the rest will be filled in when I get it figured out)
E-------------------------------------|
B-------------------------------------|
G-12-10------10------10---12----------|
D----10---12-10---12-10------12---12~-|
A-------------------------------------|
D-------------------------------------|

Guitar 2:
E---------------------------------|
B---------------------------------|
G---------------------------------|
D-5-3---0-3---0-3---5-0---0-------|  x2
A-5-3---0-3---0-3---5-0---0-------|
D-5-3---0-3---0-3---5-0---0-------|

Verse
Guitar 1:
E---------------------------------|
B---------------------------------|
G---------------------------------|
D-5/7---5/7---5/7---5/7-----------|  x4
A-3/5---3/5---3/5---3/5-----------|
D-----0-----0-----0-----0-3b4r3---|
      .     .     .     .

Guitar 2: nothing

Guitar 1:
E---------------------------------|
B---------------------------------|
G---------------------------------|
D-5-5-5-5-5-5-5-5-5-8-8-8-8-8-8-8-|
A-5-5-5-5-5-5-5-5-5-8-8-8-8-8-8-8-|
D-5-5-5-5-5-5-5-5-5-8-8-8-8-8-8-8-|

Guitar 2:
E---------------------------------|
B---------------------------------|
G---------------------------------|
D-5b(slowly bend til next segment)
A---------------------------------|
D---------------------------------|

Guitar 1:
E---------------------------------|
B---------------------------------|
G---------------------------------|
D-5-3---0-3---0-3---5-0---0-------|
A-5-3---0-3---0-3---5-0---0-------|
D-5-3---0-3---0-3---5-0---0-------|

Guitar 2: nothing

Guitar 1:
E-------------------------------------------------|
B-------------------------------------------------|
G-------------------------------------------------|
D-5-5-5-5-5-5-5-5-5-8-8-8-8-8-8-8-8-8-8-8-8-8-8-8-|
A-5-5-5-5-5-5-5-5-5-8-8-8-8-8-8-8-8-8-8-8-8-8-8-8-|
D-5-5-5-5-5-5-5-5-5-8-8-8-8-8-8-8-8-8-8-8-8-8-8-8-|

Guitar 2:
E-------------------------------------------------|
B-------------------------------------------------|
G-------------------------------------------------|
D-5b(slowly bend til chorus begins)---------------|
A-------------------------------------------------|
D-------------------------------------------------|

Chorus
Guitar 1:
E-----------------------------------------------------------------|
B-----------------------------------------------------------------|
G-----------------------------------------------------------------|
D-0---0---0---0---3---3---3---3---3---3---3---3---5-5-5-5-5-5-5/7-|  x2
A-0---0---0---0---1---1---1---1---3---3---3---3---3-3-3-3-3-3-3-5-|
D-0---0---0---0-------------------3---3---3---3-------------------|

Guitar 2:
E-10------10------10------10------10------10------10------10------|
B-----10------10------10------10------10------10------10------10--|
G-----------------------------------------------------------------|
D-----------------------------------------------------------------|  x2
A-----------------------------------------------------------------|
D-----------------------------------------------------------------|

Guitar 1:
E-----------------------------------------------------------------|
B-----------------------------------------------------------------|
G-----------------------------------------------------------------|
D-0-0-0-0-0-0-0-0-3-3-3-3-3-3-3-3-3-3-3-3-3-3-3-3-1-1-1-1-1-1-1-1-|
A-0-0-0-0-0-0-0-0-1-1-1-1-1-1-1-1-3-3-3-3-3-3-3-3-1-1-1-1-1-1-1-1-|
D-0-0-0-0-0-0-0-0-----------------3-3-3-3-3-3-3-3-1-1-1-1-1-1-1-1-|
                                                  . .

Guitar 2:
E-10------10------10------10------10------10------10------10------|
B-----10------10------10------10------10------10------10------10--|
G-----------------------------------------------------------------|
D-----------------------------------------------------------------|
A-----------------------------------------------------------------|
D-----------------------------------------------------------------|

Guitar 1:
E-----------------------------------------------------------------|
B-----------------------------------------------------------------|
G-----------------------------------------------------------------|
D-3-3-3-3-3-3-3-3-2-2-2-2-2-2-2-2-5-----5-----5-------------------|
A-1-1-1-1-1-1-1-1-0-0-0-0-0-0-0-0-5-----5-----5-------------------|
D---------------------------------5-----5-----5-------------------|

Guitar 2:
E-10------10------10------10------10------10------10------10------|
B-----10------10------10------10------10------10------10------10--|
G-----------------------------------------------------------------|
D-----------------------------------------------------------------|
A-----------------------------------------------------------------|
D-----------------------------------------------------------------|

Bridge
Guitar 1:
E-----------------------------------------------------------------|
B-----------------------------------------------------------------|
G-----------------------------------------------------------------|
D-0-----2-----3-----5---------------0-----2-----3-----5-----------|  x2
A-0-----2-----3-----5---------------0-----2-----3-----5-----------|
D-0-----2-----3-----5-----5b6r5-----0-----2-----3-----5-----3b4r3-|

Guitar 2: (comes in during second playthrough of guitar 1)
E-----------------------------------------------------------------|
B-3-3-3-5-5-5-6-6-6-8-8-8-8b9r8-----3-3-3-5-5-5-6-6-6-8-8-8-6b7r6-|
G-----------------------------------------------------------------|
D-----------------------------------------------------------------|
A-----------------------------------------------------------------|
D-----------------------------------------------------------------|

Solo
Guitar 1: unfortunately, I cannot provide the solo because it's a little difficult to 
tab out the part with the wah pedal... but, I can provide the second guitar.  I'll see 
what I can do about the solo in the future.

Guitar 2:
E-------------------------------|
B-------------------------------|
G-------------------------------|
D-5-7-7-5-7-7-5-7-7-5-7-7-------|  x4
A-5-7-7-5-7-7-5-7-7-5-7-7-3b4r3-|
D-5-7-7-5-7-7-5-7-7-5-7-7-------|

Breakdown
Guitar 1
E---------------------------------------------------------------|
B-------3---------------3---------------3---------------3-------|
G-----2-----2---------2-----2---------2-----2---------2-----2---|
D---------------------------------------------------------------|  x4
A-----------------1-----------1-------------------3-----------3-|
D-0-----------0-------------------3-----------3-----------------|

Guitar 2: (only plays during guitar 1's first playthrough)
E---------------------------------------------------------------|
B-15~-----------15---15/13-13-----13-13/10-10~~~~~~-------------|
G---------------------------------------------------------------|
D---------------------------------------------------------------|
A---------------------------------------------------------------|
D---------------------------------------------------------------|

Modified Chorus
Guitar 1:
E-----------------------------------------------------------------|
B-----------------------------------------------------------------|
G-----------------------------------------------------------------|
D-0-------------3---3-3-3-3-3-3-3-3-3-3-3-3-3-3-3-1-1-1-1-1-1-1-1-|
A-0-------------1---1-1-1-1-1-1-1-3-3-3-3-3-3-3-3-1-1-1-1-1-1-1-1-|
D-0-------------------------------3-3-3-3-3-3-3-3-1-1-1-1-1-1-1-1-|
                                                  . .

Guitar 2:
E-10------10------10------10------10------10------10------10------|
B-----10------10------10------10------10------10------10------10--|
G-----------------------------------------------------------------|
D-----------------------------------------------------------------|
A-----------------------------------------------------------------|
D-----------------------------------------------------------------|

Guitar 1:
E-----------------------------------------------------------------|
B-----------------------------------------------------------------|
G-----------------------------------------------------------------|
D-3-3-3-3-3-3-3-3-2-2-2-2-2-2-2-2-5-----5-----5-----5-----5-------|
A-1-1-1-1-1-1-1-1-0-0-0-0-0-0-0-0-5-----5-----5-----5-----5-------|
D---------------------------------5-----5-----5-----5-----5-------|


Guitar 2:
E-10------10------10------10------10------10------10------10------|
B-----10------10------10------10------10------10------10------10--|
G-----------------------------------------------------------------|
D-----------------------------------------------------------------|
A-----------------------------------------------------------------|
D-----------------------------------------------------------------|

Guitar 1:
E-----------------------------------------------------------------|
B-----------------------------------------------------------------|
G-----------------------------------------------------------------|
D-3-3-3-3-3-3-3-3-2-2-2-2-2-2-2-2-5-----5-----5-----5-----5-------|
A-1-1-1-1-1-1-1-1-0-0-0-0-0-0-0-0-5-----5-----5-----5-----5-------|
D---------------------------------5-----5-----5-----5-----5-------|


Guitar 2:
E-10------10------10------10------10------10------10------10------|
B-----10------10------10------10------10------10------10------10--|
G-----------------------------------------------------------------|
D-----------------------------------------------------------------|
A-----------------------------------------------------------------|
D-----------------------------------------------------------------|

Guitar 1:
E--------------------------------|
B--------------------------------|
G--------------------------------|
D-5------------------------------|
A-5------------------------------|
D-5------------------------------|

Guitar 2:
E-10------10------10------10-----|
B-----10------10------10------10-|
G--------------------------------|
D--------------------------------|
A--------------------------------|
D--------------------------------|

Guitar 1:
E---------------------------------|
B---------------------------------|
G---------------------------------|
D-5-3---0-3---0-3---5-0---0-------|  x3
A-5-3---0-3---0-3---5-0---0-------|
D-5-3---0-3---0-3---5-0---0-------|

E---------------------------------|
B---------------------------------|
G---------------------------------|
D-5-3---0-3---0-3---5-0---0---0---|
A-5-3---0-3---0-3---5-0---0---0---|
D-5-3---0-3---0-3---5-0---0---0---|


Guitar 2: similar to the intro with the wah effect, but at the very end you can hear a 
noticeable, but minor change.

As I stated in the beginning and throughout the song, the abscence of a wah pedal 
doesn't help my situation, but I will do my best to fill the parts I missed.  Also, if anybody 
reading this has an idea for the wah parts/solos, please share with me or tab it 
out yourself.  I hope this helped you!!!
Добавлено: 02.06.2012
Другие материалы по этой песне:
  • Аккорды и текст

Страница создана 02.06.2012
http://primanota.ru/rev-theory/loaded-gun-chords.htm
Привет, Гость.
Предлагаем пройти революционный курс по гитаре.
Подарок от PrimaNota.Ru, забирай!