PrimaNota.ru - самый крупный в мире бесплатный архив песенных текстов, аккордов, табулатур и нот


Rev Theory - Hell Yeah - текст песни, таба, бас-таба, видео

Регистрация Запомнить меня
Войти через:  Facebook Google Twitter Vk Yandex Mail.ru

Rev Theory - Hell Yeah - текст песни, таба, бас-таба, видео

Печатать
Просмотров: 1305
-------------------------------------------------------------------------------
                            Hell Yeah - Rev Theory
-------------------------------------------------------------------------------
Tabbed by: C.Cunningham
Email: mesaboogie412@gmail.com

Tuning:C# G# C# F# A# D#
 
 Intro
 
 Rhythm

e|---------------------------------------------------------------------------|
B|---------------------------------------------------------------------------|
G|------------------------------------------ 7 7 7--9 9 9--------------------|
D|--2--------------------------7 7 7--9 9 9----------------------------------|
A|--2--4 times-----------7 7 7-----------------------------------------------|
E|--2------------------------------------------------------------------------|
                         Palm mute and at end of riff let last note ring

 Intro
 
 Lead: 
e|---------------------------------------------------------------------------|
B|---------------------------------------------------------------------------|
G|--------------------------9  Bend over and over and over-------------------|
D|---------------------------------------------------------------------------|
A|---------------------------------------------------------------------------|
E|---------------------------------------------------------------------------|

  Verse

e|---------------------------------------------------------------------------|
B|---------------------------------------------------------------------------|
G|---------------------------------------------------------------------------|
D|---0-------------0--------------------------*-5-----9----------------------|
A|---0-------------0--------------------------*-5-----9----------------------|
E|---0-0 3 0 3 0---0-0 3 0 3  ---0 6 5 3 0----*-5-----9----------------------|
                                             * These are played at the end 
                                                      verse
  Chorus

e|----------0---------0----------------0-------------------------------------|
B|----------3---------3----------------3-------------------------------------|
G|---5------2---5-----2----------5-----2------5--4---------------------------|
D|---5---5------5--5---------2---5--5------2--5--4---------------------------|
A|---3---5------3--5---------2---3--5------2--3--2---------------------------|
E|-------5---------5---------2------5------2---------------------------------|

  Alright, I am not that great at tabbing so it prob. hard to understand.  I put 
  just the basic notes and chords to help out.  You have to figure out timing.
  

| /  slide up
| \  slide down
| h  hammer-on
| p  pull-off
| ~  vibrato
| +  harmonic
| x  Mute note
Добавлено: 19.03.2012
Другие материалы по этой песне:

Страница создана 19.03.2012
http://primanota.ru/rev-theory/hell-yeah-chords.htm
Привет, Гость.
Предлагаем пройти революционный курс по гитаре.
Подарок от PrimaNota.Ru, забирай!