PrimaNota.ru - самый крупный в мире бесплатный архив песенных текстов, аккордов, табулатур и нот


Rev Gary Davis - Shes Funny That Way - аккорды и текст, таба, видео

Регистрация Запомнить меня
Войти через:  Facebook Google Twitter Vk Yandex Mail.ru

Rev Gary Davis - Shes Funny That Way - аккорды и текст, таба, видео

Печатать
Просмотров: 167
Уроки эстрадного вокала в Санкт-Петербурге
Shes Funny That Way
Rev Gary Davis
She's Funny That Way
Rev. Gary Davis 

G            E7   A7                  D7
 Oh I got a gal,   who?s crazy ?bout me
G                E7      A7            D7
 She?s just as cra?zy as an?y gal can be
G                 E7     A7     D7
 Lord, she ain?t cra?zy, ? ? ?  she?s just funny that
G    G7   C   Eb7   .G       D7      
way! 

Now this gal's as jealous as any gal can be
No she ain't satisfied without her man right round her knee
Lord she ain't crazy, she's just funny that 
way!

This gal works hard for me, buys my clothes, cooks my food
She does so much for me I ain't got much left to do
She ain't crazy, she's just funny that 
way!

One thing about this gal I just can't understand 
I found out she's a fool 'bout this old man
No she ain't crazy, she's just funny that 
way! 

Yeah I got a gal, who's crazy 'bout me
She's just as crazy as any gal could be
Lord, she ain't crazy, she's just funny that 
way! 

********

Simplified tab

   G           E7          A7          D7
|------3-----------0-----------0---------2-------|
|----------0-----------0-----------2-------1-----|
|--------0-----------1-----------0--------2---2--|  x3
|--------------------------------------0---------|
|--------------------------0---------------------|
|--3-----------0---------------------------------|

   G   G7  C  Eb7     G       D7      
|--3---1---0--/3----0---3-----2-----2---2-|
|--0---0---1--/2--------------1-----------|
|--0---0---0--/3----------0---2-----------|  
|------------------------------?------0---|
|-----------------------------------------|
|--3------------------3-------------------|

/ - slide

Eb7      xxx323/xx1323/x68686

[metonymo @ mail . ru]
Добавлено: 11.09.2014
Другие материалы по этой песне:
  • Аккорды и текст

Страница создана 17.06.2012
http://primanota.ru/rev-gary-davis/shes-funny-that-way-chords.htm
Привет, Гость.
Предлагаем пройти революционный курс по гитаре.
Подарок от PrimaNota.Ru, забирай!