PrimaNota.ru - самый крупный в мире бесплатный архив песенных текстов, аккордов, табулатур и нот


Reuben - Stuck In My Throat - текст песни, таба, бас-таба, видео

Регистрация Запомнить меня
Войти через:  Facebook Google Twitter Vk Yandex Mail.ru

Reuben - Stuck In My Throat - текст песни, таба, бас-таба, видео

Печатать
Просмотров: 203
Авторы музыки: Guy Davis, Jon Pearce, Jamie Lenman
Авторы текста: Jamie Lenman
Song: Stuck in my throat
Band: Reuben
Album: Racecar is race car backwards
Tabber: Daniel King
Email: neo8549@hotmail.com

*If you have used this tab please rate
*This song is in Drop D a futher half step down

. Palm Mute

Intro

Eb|---------------------|
Bb|---------------------|
Gb|---------------------|
Db|---------------------|
Ab|---------------------| *6
Db|--1-1-1-1-1p-0-0-0---|

Eb|-----------------------|
Bb|-----------------------|
Gb|-----------------------|
Db|--4-4-4-4-4-4-x-x-x----|
Ab|--4-4-4-4-4-4-x-x-x----| *2
Db|--4-4-4-4-4-4-x-x-x----|

Eb|---------------------|
Bb|---------------------|
Gb|---------------------|
Db|-----------------3p0-|
Ab|---------------------| *4
Db|--1-1-1-1-1p-0-0-----|

Eb|---------------------------------------------|
Bb|---------------------------------------------|
Gb|---------------6-6-6-6-6-6--5-5-5-5-5-5------|
Db|--4-4-4-4-4-4--------------------------------|
Ab|--4-4-4-4-4-4--4-4-4-4-4-4--3-3-3-3-3-3------|
Db|--4-4-4-4-4-4--------------------------------|

Eb|------------------------------------------------|
Bb|------------------------------------------------|
Gb|---------------10-10-10-10-10-10-8-8-8-8-8-8----|
Db|--4-4-4-4-4-4-----------------------------------|
Ab|--4-4-4-4-4-4--8--8--8--8--8--8--6-6-6-6-6-6----|
Db|--4-4-4-4-4-4-----------------------------------|

Eb|---------------------|
Bb|---------------------|
Gb|---------------------|
Db|-----------------3p0-|
Ab|---------------------| *4
Db|--1-1-1-1-1p-0-0-----|

Eb|-----------------------|
Bb|-----------------------|
Gb|--10--9--5-5-5-5-5-5---|
Db|--10--9--3-3-3-3-3-3---|
Ab|--8---7--3-3-3-3-3-3---| *3
Db|-----------------------|

Eb|-----------------------------------------|
Bb|-----------------------------------------|
Gb|--6-6-6-6-6-6-6--8-8-8--5-5-5-5-5-5-5-5--|
Db|--6-6-6-6-6-6-6--8-8-8--6-6-6-6-6-6-6-6--|
Ab|--4-4-4-4-4-4-4--6-6-6--4-4-4-4-4-4-4-4--| *4
Db|-----------------------------------------|

Eb|---------------------|
Bb|---------------------|
Gb|---------------------|
Db|-----------------3p0-|
Ab|---------------------| *4
Db|--1-1-1-1-1p-0-0-----|

Eb|------------|
Bb|------------|
Gb|------------|
Db|--6----6----|
Ab|--4----4----|
Db|--4----4----|

Eb|---------------------|
Bb|---------------------|
Gb|---------------------|
Db|-----------------3p0-|
Ab|---------------------| *4
Db|--1-1-1-1-1p-0-0-----|

Eb|-----4-------4------|
Bb|-----7-------7------|
Gb|-----6-------6------|
Db|--6-------6---------|
Ab|--4-------4---------|
Db|--4-------4---------|

Eb|-----------------------------------------|
Bb|-----------------------------------------|
Gb|--11-------13--11-------8------6-5-------|
Db|--x--(*12)-x---x--(*24)-x-(*6)-x-x-(*7)--|
Ab|--9--------11--9--------6------4-3-------|
Db|-----------------------------------------|

Eb|--------------------------------------------|
Bb|--------------------------------------------|
Gb|--10------11-------11-------6------5--------|
Db|--x--(*3)-x--(*12)-x--(*12)-4(*12)-3-(*12)--|
Ab|--8-------9--------9--------4------3--------|
Db|-------------------7--------4------3--------|

Eb|------------------------------------|
Bb|------------------------------------|
Gb|-----------------------.--.---------|
Db|--8--7--4--------------8--7--4------|
Ab|--8--7--4--------------8--7--4------|
Db|--8--7--4--4-/-8-/-7---8--7--4------|

Eb|-----------------------------------------|
Bb|-----------------------------------------|
Gb|--6-6-6-6--------8-8-8--5-5-5-5-5-5-5-5--|
Db|--6-6-6-6--------8-8-8--5-5-5-5-5-5-5-5--|
Ab|--4-4-4-4--------6-6-6--4-4-4-4-4-4-4-4--|
Db|-----------------------------------------|

Eb|-----------------------------------------|
Bb|-----------------------------------------|
Gb|--6-6-6-6-6-6-6--8-8-8--5-5-5-5-5-5-5-5--|
Db|--6-6-6-6-6-6-6--8-8-8--6-6-6-6-6-6-6-6--|
Ab|--4-4-4-4-4-4-4--6-6-6--4-4-4-4-4-4-4-4--| *5
Db|-----------------------------------------|

Eb|------------------------------------------|
Bb|------------------------------------------|
Gb|--6-6--6-6--6-6--8-8--10-10--10-10--10-10-|
Db|------------------------------------------|
Ab|--4-4--4-4--4-4--6-6--8--8---8--8---8--8--|
Db|------------------------------------------|

Eb|-------------------------------|
Bb|-------------------------------|
Gb|--6-6--6-6--6-6--8-8---6-------|
Db|-----------------------6-------|
Ab|--4-4--4-4--4-4--6-6---4-------|
Db|-----------------------4-------|
Добавлено: 01.03.2012
Другие материалы по этой песне:

Страница создана 01.03.2012
http://primanota.ru/reuben/stuck-in-my-throat-chords.htm
Привет, Гость.
Предлагаем пройти революционный курс по гитаре.
Подарок от PrimaNota.Ru, забирай!