PrimaNota.ru - самый крупный в мире бесплатный архив песенных текстов, аккордов, табулатур и нот


Reuben - Parties Break Hearts - таба, бас-таба, видео

Регистрация Запомнить меня
Войти через:  Facebook Google Twitter Vk Yandex Mail.ru

Reuben - Parties Break Hearts - таба, бас-таба, видео

Печатать
Просмотров: 150
Авторы музыки: Guy Davis, Jon Pearce, Jamie Lenman
Авторы текста: Jamie Lenman
Artist - Reuben
Album - Racecar is Racecar Backwards
Song - Parties Break Hearts


I sorta think I got the intro to, but me and my mate can't decide if it's ....

E-------------------------------------0-0-----------------------------------|
B-------------------------------------3-3-----------------------------------|
G-------------------------------------0-0-----------------------------------|
D--3-3--0-0--8-9-8-9--3-3--0-0----------------------------------------------|
A--3-3--0-0--8-9-8-9--3-3--0-0----------------------------------------------|
D--3-3--0-0--8-9-8-9--3-3--0-0----------------------------------------------|


Or

E-------------------------------------0-0------------------------------------|
B-------------------------------------4-4------------------------------------|
G-------------------------------------0-0------------------------------------|
D--4-4--0-0--9-10-9-10--4-4--0-0---------------------------------------------|
A--4-4--0-0--9-10-9-10--4-4--0-0---------------------------------------------|
D--4-4--0-0--9-10-9-10--4-4--0-0---------------------------------------------|


Probably depending on wether its D tuned or C# tuned.
Best I can do, enjoy!

Kon-Foozed
Добавлено: 11.06.2012
Другие материалы по этой песне:
  • Аккорды и текст

Страница создана 20.05.2012
http://primanota.ru/reuben/parties-break-hearts-chords.htm
Привет, Гость.
Предлагаем пройти революционный курс по гитаре.
Подарок от PrimaNota.Ru, забирай!