PrimaNota.ru - самый крупный в мире бесплатный архив песенных текстов, аккордов, табулатур и нот


Reuben - Once - текст песни, таба, видео

Регистрация Запомнить меня
Войти через:  Facebook Google Twitter Vk Yandex Mail.ru

Reuben - Once - текст песни, таба, видео

Печатать
Просмотров: 150
Авторы музыки: Guy Davis, Jon Pearce, Jamie Lenman
Авторы текста: Jamie Lenman
ARTIST/BAND: Reuben
SONG: Once
RELEASED ON: Freddy Kreuger Single 
GUITARIST: Jamie Lenman
TABBED BY: Aiden

TUNING: Drop D (D A D G B E)


INTRO/VERSE:
E]------------------------------------------|
B]------------------------------------------| 
G]--------10----10----10----------7------7--|
D]---------8-----8-----8-------5------------|
A]--10—10----------10-------6---------6-----|
D]------------------------------------------|
 
E]---------------------------------------|
B]---------------------------------------|
G]--------10-------10----------7------7--|
D]---------7--------7-------5------------|
A]--10-10-------10-------6---------6-----|
D]---------------------------------------|


CHORUS:
E]-------------------------------------------------------------------|
B]-------------------------------------------------------------------|
G]--7-7-7-7-7-7-7-7--------------------------------------------------|
D]--7-7-7-7-7-7-7-7--8-8-8-8-8-8-8-8--7-7--0-7-7-0-0-7-7--0-7-7-0-0--|
A]--5-5-5-5-5-5-5-5--8-8-8-8-8-8-8-8--7-7--0-7-7-0-0-7-7--0-7-7-0-0--|
D]-------------------8-8-8-8-8-8-8-8--7-7--0-7-7-0-0-7-7--0-7-7-0-0--|
 

OUTRO:
E]---------------------------------------------------------------|
B]---------------------------------------------------------------|
G]--8-8-8-8-------------------------8-8-8-8----------------------|
D]--8-8-8-8-5-5-5---0-0-0-0-8-8-8---8-8-8-8-5-5-5---0-0-0-5-4-4--|
A]--6-6-6-6-5-5-5---0-0-0-0-8-8-8---6-6-6-6-5-5-5---0-0-0-5-4-4--|
E]----------5-5-5---0-0-0-0-8-8-8-----------5-5-5---0-0-0-5-4-4--|
Добавлено: 27.02.2012
Другие материалы по этой песне:
  • Аккорды и текст

Страница создана 27.02.2012
http://primanota.ru/reuben/once-chords.htm
Привет, Гость.
Предлагаем пройти революционный курс по гитаре.
Подарок от PrimaNota.Ru, забирай!