PrimaNota.ru - самый крупный в мире бесплатный архив песенных текстов, аккордов, табулатур и нот


Reuben - No One Wins The War - таба, видео

Регистрация Запомнить меня
Войти через:  Facebook Google Twitter Vk Yandex Mail.ru

Reuben - No One Wins The War - таба, видео

Печатать
Просмотров: 124
Авторы музыки: Guy Davis, Jon Pearce, Jamie Lenman
Авторы текста: Jamie Lenman
Song: No one wins the war
Band: Reuben
Album: Racecar is racecar backwards
Tabber: Daniel King
Email: neo8549@hotmail.com

*If you have used this tab please rate
*This song is in Drop D a futher half step down

Intro

     |small bend|

Eb|---0---0---0----------0---0---0----------|
Bb|---8b--8b--8b---------8b--8b--8b---------|
Gb|-----------------------------------------|
Db|--0---0---0---10-10--0---0---0---10-10---|
Ab|--0---0---0---10-10--0---0---0---10-10---|
Db|--0---0---0---10-10--0---0---0---10-10---|

Eb|---0---0---0----------0---0---0----------|
Bb|---7---7---7----------8b--8b--8b---------|
Gb|-----------------------------------------|
Db|--0---0---0---10-10--0---0---0---10-10---|
Ab|--0---0---0---10-10--0---0---0---10-10---|
Db|--0---0---0---10-10--0---0---0---10-10---|

Verse (part1)
                           |These 7's vary|
Eb|-----------------------------------------|
Bb|----7---7---7----------7---7---7---------|
Gb|-----------------------------------------|
Db|--0---0---0---10-10--0---0---0---10-10---|
Ab|--0---0---0---10-10--0---0---0---10-10---| *2
Db|--0---0---0---10-10--0---0---0---10-10---|

Verse (part2)

Eb|-----------------------------------------|
Bb|-----------------------------------------|
Gb|----0-----0-----0------------------------|
Db|------5-----3-----2--3-3-----------------|
Ab|-----------------------------------------|
Db|--5-----3-----2------3-3-----------------|

Eb|-----------------------------------------|
Bb|-----------------------------------------|
Gb|----0-----0------5-------7---------------|
Db|------5-----3------5-------7-------------|
Ab|---------------3-----3-5-----5-----------| *2
Db|--5-----3--------------------------------|


Back to Verse (part1)
Then...

Eb|---0---0---0-----------     Eb|-------------|
Bb|---7b--7b--7b----------     Bb|-------------|
Gb|-----------------------     Gb|-------------|
Db|--0---0---0---10-10----     Db|-------------|
Ab|--0---0---0---10-10---- *2  Ab|--7~-7-5-7~--|
Db|--0---0---0---10-10----     Db|-------------|

Eb|--------|------------------------|
Bb|--------|------------------------|
Gb|--------|------------------------|
Db|--3-3-4-|-0-0--10-10--5-5--4-5---|
Ab|--3-3-4-|-0-0--10-10--5-5--4-5---|
Db|--3-3-4-|-0-0--10-10--5-5--4-5---|

Eb|-------------------------|
Bb|-------------------------|
Gb|-------------------------|
Db|--9-9--4-4--3-3--3-4-----|
Ab|--9-9--4-4--3-3--3-4-----|
Db|--9-9--4-4--3-3--3-4-----|

Repeat

Eb|----------------------------------------|
Bb|----------------------------------------|
Gb|--7-------5-------7-------8-------------|
Db|--x-(*16)-x--(*4)-x-(*16)-x-(*4)--------|
Ab|--5-------3-------5-------6-------------|
Db|----------------------------------------|

Eb|--5---------8--------7------------------|
Bb|--x---------x--------x------------------|
Gb|--7--(*20)--10-(*12)-9--(*10)-----------|
Db|--x---------x--------x--------3-4-------|
Ab|--5---------8--------7--------3-4-------|
Db|------------------------------3-4-------|

Eb|-----------------------------------------|
Bb|-----------------------------------------|
Gb|-----------------------------------------|
Db|--5-5-5-5--3-3-3-3--2-2-2-2--3-3-3-3-----|
Ab|--5-5-5-5--3-3-3-3--2-2-2-2--3-3-3-3-----|
Db|--5-5-5-5--3-3-3-3--2-2-2-2--3-3-3-3-----|

Eb|-----------------------------------------|
Bb|-----------------------------------------|
Gb|--------------------5-5-5-5--4-4-4-4-----|
Db|--5-5-5-5--3-3-3-3--5-5-5-5--4-4-4-4-----|
Ab|--5-5-5-5--3-3-3-3--3-3-3-3--2-2-2-2-----|
Db|--5-5-5-5--3-3-3-3-----------------------|

Eb|---------------------------------------------|
Bb|---------------------------------------------|
Gb|----0---0---0---0---0------5-5-5-5--7-7-7-7--|
Db|---------------------------5-5-5-5--5-5-5-5--|
Ab|---------------------------3-3-3-3--3-3-3-3--| *2
Db|--5---3---2---3---5---3----------------------|

Eb|-----------------------------------------|
Bb|--2h3p2h3p2-2h3p2h3p2h3-<<<2nd Guitar----|
Gb|-----------------------------------------|
Db|------------9--4--7--4---4--5--7--9--4---|
Ab|------------9--4--7--4---4--5--7--9--4---| *4
Db|------------9--4--7--4---4--5--7--9--4---|

Eb|---------------------------|
Bb|---------------------------|
Gb|---------------------------|
Db|--4--5--7---9--7---9-------|
Ab|--5--7--9--10--8--10-------| *2
Db|---------------------------|

Eb|---------------------------|
Bb|---------------------------|
Gb|--7--9--11--12--10--12-----|
Db|--7--7--9---10--8---10-----|
Ab|--5--7--9---10--8---10-----| *4
Db|---------------------------|

     |small bend|

Eb|---0---0---0----------0---0---0----------|
Bb|---8b--8b--8b---------8b--8b--8b---------|
Gb|-----------------------------------------|
Db|--0---0---0---10-10--0---0---0---10-10---|
Ab|--0---0---0---10-10--0---0---0---10-10---|
Db|--0---0---0---10-10--0---0---0---10-10---| *2
Добавлено: 18.07.2012
Другие материалы по этой песне:

Страница создана 19.05.2012
http://primanota.ru/reuben/no-one-wins-the-war-chords.htm
Привет, Гость.
Предлагаем пройти революционный курс по гитаре.
Подарок от PrimaNota.Ru, забирай!