PrimaNota.ru - самый крупный в мире бесплатный архив песенных текстов, аккордов, табулатур и нот


Reuben - Let's Stop Hanging Out - текст песни, таба, бас-таба, видео

Регистрация Запомнить меня
Войти через:  Facebook Google Twitter Vk Yandex Mail.ru

Reuben - Let's Stop Hanging Out - текст песни, таба, бас-таба, видео

Печатать
Просмотров: 211
Авторы музыки: Guy Davis, Jon Pearce, Jamie Lenman
Авторы текста: Jamie Lenman
verse 1 (verse 2 just use 3rd and 4th parts twice)

eb-----------------------------------|
bb-----------------------------------|
Gb-----------------------------------|
Db-----------------------------------|
Ab--55-555-555-555-555-555-----------|
Db-----------------------------------| etc
 
eb-----------------------------------|
bb-----------------------------------|
Gb-----------------------------------|
Db-----------------------------------|
Ab-555-555-555-555-555-555-----------|
Db-333-333-333-333-333-333-----------| etc

eb-----------------------------------|
bb-----------------------------------|
Gb-----------------------------------|
Db-777-777-777-777-777-777-----------|
Ab-555-555-555-555-555-555-----------|
Db-000-000-000-000-000-000-----------| etc

eb-----------------------------------|
bb-----------------------------------|
Gb-----------------------------------|
Db-777-777-777-777-777-777-----------|
Ab-555-555-555-555-555-555-----------|
Db-333-333-333-333-333-333-----------| etc


chorus 

eb-----------------------------------|
bb-----------------------------------|
Gb-----------------------------------|
Db--555555555555667-9999-7-7-9999-10-|
Ab--333333333333445-7777-5-5-7777-8--|
Db-----------------------------------| (1st chorus x2  2nd chorus x4)


bridge ("You deserve to be with NO-ONE!!")

eb-----------------------------------|
bb-----------------------------------|
Gb-----------------------------------|
Db-00-10-0-10-12-44-00-432-----------|
Ab-00-10-0-10-12-44-00-432-----------|
Db-00-10-0-10-12-44-00-432-----------| x3

eb-----------------------------------|
bb-----------------------------------|
Gb-----------------------------------|
Db-00-10-0-h*h*h*-44-00-432----------| (h*=harmonic between 2nd and third frets)
Ab-00-10-0-h*h*h*-44-00-432----------|
Db-00-10-0-h*h*h*-44-00-432----------|


outro

"Lets stop hanging out lets stop having fun.Lets stop hanging out lets stop having fun."

eb-----------------------------------|
bb-----------------------------------|
Gb-----------------------------------|
Db-8-8-888-8-8-88-8-9-9-999-9-9-99-9-|
Ab-6-6-666-6-6-66-6-7-7-777-7-7-77-7-|
Db-----------------------------------|

eb-----------------------------------|
bb-----------------------------------|
Gb-----------------------------------|
Db-8-8-888-8-8-88-8-7-7-777-7-7-77-7-|
Ab-6-6-666-6-6-66-6-5-5-555-5-5-55-5-|
Db-----------------------------------|

eb-----------------------------------|
bb-----------------------------------|
Gb-----------------------------------|
Db-5-5-555-5-5-55-5-9-9-999-9-9-99-9-|
Ab-3-3-333-3-3-33-3-7-7-777-7-7-77-7-|
Db-----------------------------------|

eb-------------------------------------|
bb-------------------------------------|
Gb-------------------------------------|
Db-8-8-8-8-8-8-8-8-9-9-9-9-10-10-10-10-|
Ab-6-6-6-6-6-6-6-6-7-7-7-7-8--8--8--8--|
Db-------------------------------------| x3

eb-------------------------------------|
bb-------------------------------------|
Gb-------------------------------------|
Db-12-12-12-12-12-12-12-12-12-12-12-12-|
Ab-10-10-20-10-10-10-10-10-10-10-10-10-|
Db-------------------------------------| 

just singing and drums

THE END

thought id put it under =reuben= with '=' just in case...
Добавлено: 30.05.2012
Другие материалы по этой песне:

Страница создана 27.04.2012
http://primanota.ru/reuben/lets-stop-hanging-out-chords.htm
Привет, Гость.
Предлагаем пройти революционный курс по гитаре.
Подарок от PrimaNota.Ru, забирай!