PrimaNota.ru - самый крупный в мире бесплатный архив песенных текстов, аккордов, табулатур и нот


Reuben - Good Luck - таба, видео

Регистрация Запомнить меня
Войти через:  Facebook Google Twitter Vk Yandex Mail.ru

Reuben - Good Luck - таба, видео

Печатать
Просмотров: 166
Авторы музыки: Guy Davis, Jon Pearce, Jamie Lenman
Авторы текста: Jamie Lenman
-------------------------------------------------------------------------------
			     Good Luck - Reuben
-------------------------------------------------------------------------------
Tabbed by: William Totten - for my good friend Simon

I haven't spent the time transcribing this perfectly but I think it's pretty
close. I hope you agree.

Unusually for Reuben, this is played with Standard Tuning.

Verse
e|---------------------------------------------------------------------------|
B|---------------------------------------------------------------------------|
G|----------------1------------------4---------------------------------------|
D|------1------1/2-2--2------1---2-4-6---------------------------------------|
A|---0/2-2--2-0---------0/2-2--2-0-0-0---------------------------------------|
E|--0------------------0-----------------------------------------------------|repeat 5 times

Long ago.........
There was this girl..........



Bridge
e|--0--------0--------0--------0-----0---------0--------0---------4----------|
B|---4-0-4-0--4-0-4-0--4-0-4-0---------4-0-4-0--4-0-4-0--4-0-4-0-------------|
G|----------4--------4--------4---------------4--------4--------4------------|
D|---------------------------------------------------------------------------|
A|--4--------------------------------4---------------------------------------|
E|-----------4--------5--------0---------------4--------5---------0----------|

But a few words in his defence...........
She said it was lovely...........

e|--4--------4--------4--------7---------0---0----------0---0----------------|
B|---4-0-4-0--4-0-4-0--4-0-4-0-----------0---0----------0---0----------------|
G|----------4--------4--------4------3---3---3------6---6---6----------------|
D|-----------------------------------4---4---4------7---7---7----------------|
A|--4--------------------------------4---4---4------7---7---7----------------|
E|-----------4--------5--------0-----2---2---2------5---5---5----------------|

e|---------------------------------------------------------------------------|
B|---------------------------------------------------------------------------|
G|---------------------------------------------------------------------------|
D|--7-7--4/6-6----------------------7-7--4/6-6----------------------7-7--4/6-|
A|--7-7-------7-7-9-6-6--4/6-6------7-7-------7-7-9-6-6--4/6-6------7-7------|
E|--5-5-------------0-0-------7-7-4-5-5-------------0-0-------7-7-4-5-5------|

			      Good luck.........	

e|---------------------------------------------------------------------------|
B|---------------------------------------------------------------------------|
G|---------------------------------------------------------------------------|
D|-6----------------------7-7--4/6-6-----------------------------------------|
A|--7-7-9-6-6--4/6-6------7-7-------7-7/-------------------------------------|
E|--------0-0-------7-7-4-5-5------------------------------------------------|

The remainder of the song comprises variations on the above along with some
straight-forward "E" to "A" chord changes, during which the bassline becomes
far more prominent. It ends as transcribed below.

e|---------------------------------------------------------------------------|
B|---------------------------------------------------------------------------|
G|-6--6---6/7----------------------------------------------------------------|
D|-6--6---6/7----------------------------------------------------------------|
A|-4--4---4/5----------------------------------------------------------------|
E|---------------------------------------------------------------------------|

If you hurt me, I will forget you.

Hope you like it.


| /  slide up
| \  slide down
| h  hammer-on
| p  pull-off
| ~  vibrato
| +  harmonic
| x  Mute note
===============================================================================
Добавлено: 15.06.2012
Другие материалы по этой песне:
  • Аккорды и текст

Страница создана 15.06.2012
http://primanota.ru/reuben/good-luck-chords.htm
Привет, Гость.
Предлагаем пройти революционный курс по гитаре.
Подарок от PrimaNota.Ru, забирай!