PrimaNota.ru - самый крупный в мире бесплатный архив песенных текстов, аккордов, табулатур и нот


Reuben - Glitterskin - текст песни, таба, видео

Регистрация Запомнить меня
Войти через:  Facebook Google Twitter Vk Yandex Mail.ru

Reuben - Glitterskin - текст песни, таба, видео

Печатать
Просмотров: 141
Уроки эстрадного вокала в Санкт-Петербурге
Авторы музыки: Guy Davis, Jon Pearce, Jamie Lenman
Авторы текста: Jamie Lenman
Reuben
Glitterskin
From the 'Freddy Kreuger' Single
Standard D# Tuning (The version from the Betrayed demo is pretty much the same, just in 
tuning)

     Riff A (Main riff/verse)
D#|------------------|------------------|
A#|----------3--3--3-|----------3--3--3-|
F#|----------2--2--2-|----------2--2--2-|
C#|--2--2--2-0--0--0-|--2--2--2-0--0--0-|
G#|--2--2--2---------|--2--2--2---------|
D#|--0--0--0---------|--0--0--0---------|

     Riff A variation
D#|--3--3--3---------|------------------|
A#|--x--x--x-3--3--3-|----------3--3--3-|
F#|--x--x--x-2--2--2-|----------2--2--2-|
C#|--2--2--2-0--0--0-|--2--2--2-0--0--0-|
G#|--2--2--2---------|--2--2--2---------|
D#|--0--0--0---------|--0--0--0---------|


     Riff B (Chrous)
D#|--------------------------|--------------------------|
A#|--------------------------|--------------------------|
F#|--------------------------|-------------7--7--7-7-7--|
C#|--7--7--x-x-x-5--5--5-5-5-|-2--2--x-x-x-7--7--7-7-7--|
G#|--7--7--x-x-x-5--5--5-5-5-|-2--2--x-x-x-5--5--5-5-5--|
D#|--5--5--x-x-x-3--3--3-3-3-|-0--0--x-x-x--------------|

     Riff C (Beginning 2.12)
D#|--------------------|--------------------|
A#|--------------------|--------------------|
F#|--------------------|--------------------|
G#|-----------------8--|-----------------5--|
C#|-----------------8--|-----------------5--|
D#|--0--10-h-12--x--6--|--0--10-h-12--x--3--|

That's all the individual parts. Most of the organ solo is backed just by the bass, and 
the second verse and near the end of the song, there's some slight

rhythmic variation of the main riff.
Добавлено: 23.05.2012
Другие материалы по этой песне:
  • Аккорды и текст

Страница создана 27.03.2012
http://primanota.ru/reuben/glitterskin-chords.htm
Привет, Гость.
Предлагаем пройти революционный курс по гитаре.
Подарок от PrimaNota.Ru, забирай!