PrimaNota.ru - самый крупный в мире бесплатный архив песенных текстов, аккордов, табулатур и нот


Reuben - Death Of A Star - текст песни, таба, видео

Регистрация Запомнить меня
Войти через:  Facebook Google Twitter Vk Yandex Mail.ru

Reuben - Death Of A Star - текст песни, таба, видео

Печатать
Просмотров: 138
Авторы музыки: Mark Lawton, Jon Pearce, Jamie Lenman
Авторы текста: Jamie Lenman
Reuben – Death of a Star – Pilot EP
Tabed by Ste ‘H' after a 2 long days in bed
e-mail d4013255@tees.ac.uk

b	Bend
h	Hammer on
p	Pull off
\	Slide down
/	Slide up

You can download the pilot EP from Wikipedia for free so you have no excuse not to learn
song. Just find Reuben the band (UK) page!
Main Riff/Intro
e|---------------------------|
B|---------------------------|
G|-7-7-7-6-4-6/7-6-6-6-6-6-6-|
D|-0-0-0-0-0-0---4-4-4-4-4-4-|
A|-0-0-0-0-0-0---4-4-4-4-4-4-|
D|-0-0-0-0-0-0---4-4-4-4-4-4-|

e|-------------------------|
B|-------------------------|
G|-7-7-7-7-2-2-6-6-6-6-6-6-|
D|-0-0-0-0-0-0-4-4-4-4-4-4-|
A|-0-0-0-0-0-0-4-4-4-4-4-4-|
D|-0-0-0-0-0-0-4-4-4-4-4-4-|

e|---------------------------|
B|---------------------------|
G|-7-7-7-6-4-6/7-6-6-6-6-6-6-|
D|-0-0-0-0-0-0---4-4-4-4-4-4-|
A|-0-0-0-0-0-0---4-4-4-4-4-4-|
D|-0-0-0-0-0-0---4-4-4-4-4-4-|

e|-------------------------|
B|-------2-2-2-------------|
G|-2-2-2-2-2-2-6-6-6-6-6-6-|
D|-0-0-0-0-0-0-4-4-4-4-4-4-|
A|-0-0-0-0-0-0-4-4-4-4-4-4-|
D|-0-0-0-0-0-0-4-4-4-4-4-4-|

pre verse
e|-------------------------------------|
B|-------------------------------------|
G|--7---6—7p6\4---4/6--7---6-7p6---2---|
D|-------------------------------------|
A|-------------------------------------|
D|-------------------------------------|

1st verse
e|--------------------------------------------------|
B|---3----------------------------------------------|
G|---2-------5/7------------------------------------|    x2    (the timing follows the lyrics)
D|---4-------3/5------|            |---x72---x6/x6--|
A|--------------------------------------------------|
D|--------------------------------------------------|

chorus
e|--------------------------------------------|
B|--------------------------------------------|
G|--------------------------------------------|
D|--0-0-0--0--0-0-0-0--4-4-4-4-4-4-4-4—(5-4)--|
A|--0-0-0--0--0-0-0-0--4-4-4-4-4-4-4-4—(5-4)--|
D|--0-0-0--0--0-0-0-0--4-4-4-4-4-4-4-4—(5-4)--|
									x2
e|--------------------------------------|
B|--------------------------------------|
G|--------------------------------------|
D|--0-0-0--0--0-0-0-0--9-9-9-9-9-9-9-9--|
A|--0-0-0--0--0-0-0-0--9-9-9-9-9-9-9-9--|
D|--0-0-0--0--0-0-0-0--9-9-9-9-9-9-9-9--|

Then back to the main riff but at the end play the F power chord with G-6 an extra 3
followed by D power chord x8

2nd verse
e|-------0----------|--------------------------------|
B|-----3---3--------|--------------------------------|
G|-----------2---x8-|--------7---------------------7-|
D|---4--------------|------4---4-------x7--------4---|
A|------------------|----5-------4h5-----------5-----|
D|------------------|--0---------------------0-------|
There are several things you can play that fit into the first part of verse 2 that
around that chord, so long as its that chord you play you cant go wrong so find 
you
 The last part is for a bass but you can work it on guitar.

Bridge/break down
After playing the chorus into the main riff as usual (but with a big bend at the end of
third extra bar) it gets tricky.  You can mix n match between chorus and riff;
Play the main riff but play the G notes on the D eg
e|---------------------------|
B|---------------------------|
G|---------------------------|
D|-7-7-7-6-4-6/7-6-6-6-6-6-6-|
A|-0-0-0-0-0-0---4-4-4-4-4-4-|
D|-0-0-0-0-0-0---4-4-4-4-4-4-|
or play it on both D & G eg
e|---------------------------|
B|---------------------------|
G|-7-7-7-6-4-6/7-6-6-6-6-6-6-|
D|-7-7-7-6-4-6/7-6-6-6-6-6-6-|
A|-0-0-0-0-0-0---4-4-4-4-4-4-|
D|-0-0-0-0-0-0---4-4-4-4-4-4-|

play out
e|--------------------------------------------------------------------|
B|--------------------------------------------------------------------|
G|--------------------------------------------------------------------|
D|-4-4-4-2-2-4b—4-4-4-4-4-(x2)--2-2-2-0-0-0-1-1-1-1-0-0-2-2-2-0-0-0-1-|
A|--------------------------------------------------------------------|
D|--------------------------------------------------------------------|

This is my first full tab and it is the whole song every bit you want to know.  I've
it over and over again and i'm sure its perfect which is good since this tab doesn't exist
 Get it, learn it and spread the good “Words From Reuben”!  If you've got a problem with 
and think you can do better then where was your tab when i wanted to learn this song?
Добавлено: 02.03.2012
Другие материалы по этой песне:
  • Аккорды и текст

Страница создана 02.03.2012
http://primanota.ru/reuben/death-of-a-star-chords.htm
Привет, Гость.
Предлагаем пройти революционный курс по гитаре.
Подарок от PrimaNota.Ru, забирай!