PrimaNota.ru - самый крупный в мире бесплатный архив песенных текстов, аккордов, табулатур и нот


Reuben - Best Enemies - таба, бас-таба, видео

Регистрация Запомнить меня
Войти через:  Facebook Google Twitter Vk Yandex Mail.ru

Reuben - Best Enemies - таба, бас-таба, видео

Печатать
Просмотров: 189
Авторы музыки: Guy Davis, Jon Pearce, Jamie Lenman
Авторы текста: Jamie Lenman
Artist/Band - Reuben
Album - Very Fast Very Dangerous
Song - Best Enemies


Tuning: C# G# C# F# A# D# 

Key:
h = Hammer-on


Intro:
D#]-------------------------------|-----------------------------|
A#]--------------------------3h5--|-----------------------------|
F#]----5-----5-----5-----4h5------|----5-----5-----5-------5----| x4
C#]------5-----5-----5------------|------5-----5-----5---4---4--|
G#]--0-----0-----0-----0----------|--0-----0-----0-----0--------|
C#]-------------------------------|-----------------------------|



Verse 1:
D#]------------------------------|------------------------------|
A#]------------------------------|------------------------------|
F#]------5------5------5------5--|------5------5------5------5--| x4
C#]------5------5------5------4--|------5------5------5------4--|
G#]--0-0----0-0----0-0----0-0----|--0-0----0-0----0-0----0-0----|
C#]------------------------------|------------------------------|

D#]------------------------------|------------------------------|
A#]------------------------------|------------------------------|
F#]------5------5------5------5--|------5------5------5------5--|
C#]------5------5------5------5--|------5------5------5------5--|
G#]------------------------------|------------------------------|
C#]--5-5----5-5----5-5----5-5----|--2-2----2-2----2-2----2-2----|

D#]------------------------------|------------------------------|
A#]------------------------------|------------------------------|
F#]------5------5------5------5--|------5------5------5------5--|
C#]------5------5------5------5--|------5------5------5------5--|
G#]------------------------------|------------------------------|
C#]--3-3----3-3----3-3----3-3----|--2-2----2-2----2-2----2-2----|

D#]-------------------------------|-----------------------------|
A#]--------------------------3h5--|-----------------------------|
F#]----5-----5-----5-----4h5------|----5-----5-----5-------5----| x2
C#]------5-----5-----5------------|------5-----5-----5---4---4--|
G#]--0-----0-----0-----0----------|--0-----0-----0-----0--------|
C#]-------------------------------|-----------------------------|


Chorus chords:
D#]-----------------------|
A#]-----------------------|
F#]-----------------------|
C#]--10----9---7---5---3--|
G#]--10---10---7---5---3--|
C#]--10---10---7---5---3--|


I know this isn't finished, but it's the best I've got so far.
Добавлено: 27.07.2012
Другие материалы по этой песне:

Страница создана 30.06.2012
http://primanota.ru/reuben/best-enemies-chords.htm
Привет, Гость.
Предлагаем пройти революционный курс по гитаре.
Подарок от PrimaNota.Ru, забирай!