PrimaNota.ru - самый крупный в мире бесплатный архив песенных текстов, аккордов, табулатур и нот


Reuben And The Dark - Bow And Arrow - аккорды и текст, видео

Регистрация Запомнить меня
Войти через:  Facebook Google Twitter Vk Yandex Mail.ru

Reuben And The Dark - Bow And Arrow - аккорды и текст, видео

Печатать
Просмотров: 142
Bow And Arrow
Reuben And The Dark
-------------------------------------------------------------------------------
                       BOW AND ARROW - Reuben and the Dark
-------------------------------------------------------------------------------
Tabbed by: Leah Quah

Tuning: Standard

Chord summary: D A E A (6 beats each, entire song)
Rhythm: count in 3s (compound time). I use
down (rest) down-up down-up

Intro (x15) and 1st Verse (optional)
e|-----9---------------------------------------------------------------------|
B|-10----10----12------------------------------------------------------------|
G|----------11---------------------------------------------------------------|
D|---------------------------------------------------------------------------|
A|---------------------------------------------------------------------------|
E|---------------------------------------------------------------------------|

         D
You're a bow and arrow
  A
A broken guitar
           E                A
While the rainwater washes away who you are
      D                      A
We go over the mountains and under the stars
      E                      A
We go over the mountains and under the stars
(x2)

          D       A      E      A
Won't you fold my hands over my heart?
              D        A         E        A
I want you to close my eyes when it grows dark
          D                      A
Oh, we go over the mountains and under the stars
      E                      A
We go over the mountains and under the stars
      D                      A
We go over the mountains and under the stars
      E                      A
We go over the mountains and under the stars

Solo (x2, optionally over next verse)
e|-222222-2222222-222222-222222-000000-000000-555555-555555------------------|
B|---------------------------------------------------------------------------|
G|---------------------------------------------------------------------------|
D|---------------------------------------------------------------------------|
A|---------------------------------------------------------------------------|
E|---------------------------------------------------------------------------|

          D        A     E      A
Won't you fold my hands over my heart?
               D        A         E        A
I want you to close my eyes when it grows dark

         D
You're a bow and arrow
  A
A broken guitar
           E                A
While the rainwater washes away who you are
      D                      A
We go over the mountains and under the stars
      E                      A
We go over the mountains and under the stars

Outro (fadeout)
e|-----9---------------------------------------------------------------------|
B|-10----10----12------------------------------------------------------------|
G|----------11---------------------------------------------------------------|
D|---------------------------------------------------------------------------|
A|---------------------------------------------------------------------------|
E|---------------------------------------------------------------------------|

Acoustic: end on A
Добавлено: 05.10.2015
Другие материалы по этой песне:
  • Аккорды и текст

Страница создана 05.10.2015
http://primanota.ru/reuben-and-dark/bow-and-arrow-chords.htm
Привет, Гость.
Предлагаем пройти революционный курс по гитаре.
Подарок от PrimaNota.Ru, забирай!