PrimaNota.ru - самый крупный в мире бесплатный архив песенных текстов, аккордов, табулатур и нот


Return To Forever - Sorceress - бас-таба, видео

Регистрация Запомнить меня
Войти через:  Facebook Google Twitter Vk Yandex Mail.ru

Return To Forever - Sorceress - бас-таба, видео

Печатать
Просмотров: 83
Sorceress (BASS TAB)
by Return to Forever
 
transcribed by Chris Muhs
 

  slide down from 13th fret area on first note
 
G|-----------------6~~~~----------------|
D|-/8----------6-8-------8-------5-6--*-|
A|------------------------------------*-|
E|----6--6--6---------------6-----------|
 
C that a bunch of times then this
(with wah wah):
 |------------------------------------|
 |-8----------8---------8~~~~~~~------|
 |---5--6--7-8---5--6--7--------------|
 |------------------------------------|
 
then it gets hard to hear, sounds like it's in A
 
then it goes back to the main riff for a while, & that's
mainly it.
 
peace

     
Добавлено: 24.09.2013
Другие материалы по этой песне:
  • Аккорды и текст

Страница создана 24.09.2013
http://primanota.ru/return-to-forever/sorceress-chords.htm
Привет, Гость.
Предлагаем пройти революционный курс по гитаре.
Подарок от PrimaNota.Ru, забирай!