PrimaNota.ru - самый крупный в мире бесплатный архив песенных текстов, аккордов, табулатур и нот


Retox - Thirty Cents Shy Of A Quarter - таба, видео

Регистрация Запомнить меня
Войти через:  Facebook Google Twitter Vk Yandex Mail.ru

Retox - Thirty Cents Shy Of A Quarter - таба, видео

Печатать
Просмотров: 69
-------------------------------------------------------------------------------
                  RETOX     
THIRTY CENTS SHY OF A QUARTER
-------------------------------------------------------------------------------
Tabbed by: wetrib

Tuning:D

MAIN RIFF Lucky fuck fell in a river and only got dusty
e|---------------------------------------------------------------------------|
B|---------------------------------------------------------------------------|
G|---------------------------------------------------------------------------|
D|---------------------------------------------------------------------------|
A|---------------------------------------------------------------------------|
D|---6--7--8--9------6--7--8--9-----6--7--8--9------6--7--8--9---------------|


e|--------------------------------------------------------------------------|
B|--------------------------------------------------------------------------|
G|--------------------------------------------------------------------------|
D|---9-9-9-9-9-9-9-9---8-8-8-8---7-7-7-7----6-6-X-X-6-6-X-X-6-6-X-X-6-6-----|
A|---9-9-9-9-9-9-9-9---8-8-8-8---7-7-7-7----6-6-X-X-6-6-X-X-6-6-X-X-6-6-----|
D|---9-9-9-9-9-9-9-9---8-8-8-8---7-7-7-7----6-6-X-X-6-6-X-X-6-6-X-X-6-6-----|


e|---------------------------------------------------------------------------|
B|---------------------------------------------------------------------------|
G|---------------------------------------------------------------------------|
D|---------------------------------------------------------------------------|
A|---------------------------------------------------------------------------|
D||---6--7--8--9------6--7--8--9-----6--7--8--9------6--7--8--9--------------|



GUITAR SOLO SURFY FEEL CRANK ON THAT TREMELO/REVERB PEDAL
e|---------------------------------------------------------------------------|
B|---------------------------------------------------------------------------|
G|---------------------------------------------------------------------------|
D|---6-6-6-6-6-6-6-6-7-7-7-7-6-6-6-6-9-9-9-9-9-9-9-9-8-8-8-8-7-7-7-7---------|
A|---------------------------------------------------------------------------|
D|------------------------play 2xs------------------------------------------|


e|11-11-11-11-11-11-11-11-10-10-10-10-10-10-10-10-(9-9-9-9-9-9-10-10-10-10-9-9|
B|------------------------------------------------(---------------------------|
G|------------------------------------------------(---------------------------|
D|------------------------------------------------(---------------------------|
A|------------------------------------------------(---------------------------|
E|--play all once through then 2nd time stop here-^---------------------------|


Lucky fuck fell in a river and only got dusty
Lucky fuck is a success, but lucky fuck feels like a fake
The million dollar question: 
Just how much is lucky fuck's money worth to him when he is dead?
A success

Locust  some girls  holy molar daughters  retox  all leather  head wound city

************************************

| /   slide up
| \   slide down
| h   hammer-on
| p   pull-off
| ~   vibrato
| +   harmonic
| x   Mute note
| b   Bend

https://www.facebook.com/RETOXRULES
http://threeoneg.com/artists/retox/
Добавлено: 27.08.2013
Другие материалы по этой песне:
  • Аккорды и текст

Страница создана 19.06.2013
http://primanota.ru/retox/thirty-cents-shy-of-a-quarter-chords.htm
Привет, Гость.
Предлагаем пройти революционный курс по гитаре.
Подарок от PrimaNota.Ru, забирай!