PrimaNota.ru - самый крупный в мире бесплатный архив песенных текстов, аккордов, табулатур и нот


Resist The Thought - Solitude - таба, видео

Регистрация Запомнить меня
Войти через:  Facebook Google Twitter Vk Yandex Mail.ru

Resist The Thought - Solitude - таба, видео

Печатать
Просмотров: 114
-------------------------------------------------------
            Solitude - Resist The Thought
-------------------------------------------------------
www.resistthethought.com

Tabbed by: Kristyn Lee
E-mail: spot_the_village_loony_836@hotmail.com

Tuning: Drop B

Intro
strum these, listen for timing
C#|-----------------------|
G#|-----------------------|
E |-----------------------|
B |---10----7-----5-------|
F#|---8-----5-----3-------|
B |---8-----5-----3-------|

----------------------------------------------------------------------
0:14 - 1:40
C#|---------------------------------------------------------|
G#|----------------------------------------6---------6------|
E |----------10-------------12------------------------------|
B |-------12---10--------12---12--------7---------7---------|
F#|--------------10-------------12--------------------------|
B |---888-----------888-------------555-------555-----------|
      ... .  . . .  ...  .  . . .   ... .  .  ... .  .

C#|-------------------------|
G#|-------------------------|
E |---------7-------7-------|
B |-------5-------5---------|
F#|-------------------------|
B |---333-----333-----------|
      ... . . ... . .

"solitude...you are living a lie..."
---------------------------------------------------------------------
0:40
C#|----------------|
G#|----------------|
E |----------------|
B |---0~~----------|
F#|---0~~------0---|
B |---0~~------0---|
               .
---------------------------------------------------------------------
0:43 - 1:08
"watch as you plunge into the depths of your despair..."
C#|--------------------------------------------------------|
G#|--------------------------------------------------------|
E |--------------------------------------------------------|
B |------------------7p5---10----8----7----12---10---8-----|
F#|---5---10p8p7-5-------8---------------------------------|
B |-----0----------0-----------0----0----0----0----0-------|
        .          .           .    .    .    .    .  

C#|-------------------------------------------|
G#|-------------------------------------------|
E |-------------------------------------------|
B |------------------7p5----1010-12-99-10-----|
F#|---5---10p8p7-5-------8--8-8--10-77-8------|
B |-----0----------0--------------------------|
        .          .     
--------------------------------------------------------------------------
1:09 - 1:38

Breakdown - play x4

"you are living a lie...this creature you've become..."
C#|------------------------------------------------|
G#|------------------------------------------------|
E |------------------------------------------------|
B |---0~~------------------------------------------|
F#|---0~~--00000-00000-00000-00000000000-00000-----|
B |---0~~--00000-00000-00000-00000000000-00000-----|
           ..... ..... ..... ........... .....
C#|-----------------------------------|
G#|-----------------------------------|
E |-----------------------------------|
B |-----------------------------------|
F#|---12p8---12p8---13p10-13p10-------|
B |-------12-----12-------------------|

--------------------------------------------------------------------------
1:38 - 1:51
"such an empty life..."
C#|--------------------------------------------------------|
G#|--------------------------------------------------------|
E |--------------------------------------------------------|
B |------------------7p5---10----8----7----12---10---8-----|
F#|---5---10p8p7-5-------8---------------------------------|
B |-----0----------0-----------0----0----0----0----0-------|
        .          .           .    .    .    .    .  
C#|-------------------------------------------|
G#|-------------------------------------------|
E |-------------------------------------------|
B |------------------7p5----1010-12-99-10-----|
F#|---5---10p8p7-5-------8--8-8--10-77-8------|
B |-----0----------0--------------------------|
        .          .
---------------------------------------------------------------------------1:51  
not sure about this part     play x2
C#|------------------------------------------------------------------|
G#|------------------------------------------------------------------|
E |------------------------------------------------------------------|
B |-------777555---101010888------121212101010-------141414101010----|
F#|---555-------888---------101010------------121212-----------------|
B |------------------------------------------------------------------|

1:58    play x1
C#|--------------------------------------------------------------|
G#|--------------------------------------------------------------|
E |--------------------------------------------------------------|
B |-------7---5-------10---8--------12---10--------14---10-------|
F#|---5-----------8------------10-------------12-----------------|
B |-----0---0---0---0----0---0----0----0----0----0----0----------|
        .   .   .   .    .   .    . .  . .  . .  . .  .  .
2:01    play x1
C#|------------------------------------------------------------------|
G#|------------------------------------------------------------------|
E |------------------------------------------------------------------|
B |-------777555---101010888------121212101010-------141414101010----|
F#|---555-------888---------101010------------121212-----------------|
B |------------------------------------------------------------------|

--------------------------------------------------------------------------
2:05 - 2:30
C#|---------------------------------------------------------|
G#|----------------------------------------6---------6------|
E |----------10-------------12------------------------------|
B |-------12---10--------12---12--------7---------7---------|
F#|--------------10-------------12--------------------------|
B |---888-----------888-------------555-------555-----------|
      ... .  . . .  ...  .  . . .   ... .  .  ... .  .

C#|-------------------------|
G#|-------------------------|
E |---------7-------7-------|
B |-------5-------5---------|
F#|-------------------------|
B |---333-----333-----------|
      ... . . ... . .
---------------------------------------------------------------------------
2:30 - 2:57 
Play x 4
C#|-----------------------------------------------------------------|
G#|-----------------------------------------------------------------|
E |-----------------------------------------------------------------|
B |----------888777---------777555---------222333--------555222-----|
F#|---5-5555---------3-3333---------0-0000--------3-3333------------|
B |---5-5555---------3-3333---------0-0000--------3-3333------------|
        ....           ....           ....          ....
---------------------------------------------------------------------------
2:57 - 3:23

2nd breakdown  -  play whole thing x2

C#|-------------------------------------------------------------|
G#|-------------------------------------------------------------|
E |-------------------------------------------------------------|
B |-------------------------------------------------------------|
F#|---000-000-000000000-000-000-000000000-000-000-000000000-----|
B |---000-000-000000000-000-000-000000000-000-000-000000000-----| 
      ... ... ......... ... ... ......... ... ... .........

C#|--------------------------------|
G#|--------------------------------|
E |--------------------7+----------|
B |--------------------------------|
F#|---111111111-333333-------------|
B |---111111111-333333-------------|
      ......... ......
C#|-------------------------------------------------------------|
G#|-------------------------------------------------------------|
E |-------------------------------------------------------------|
B |-------------------------------------------------------------|
F#|---000-000-000000000-000-000-000000000-000-000-000000000-----|
B |---000-000-000000000-000-000-000000000-000-000-000000000-----| 
      ... ... ......... ... ... ......... ... ... .........

C#|--------------------------------|
G#|--------------------------------|
E |--------------------------------|
B |---------2-3-5---------5-7------|
F#|-----3-5---------5-7-8----------|
B |---5-----------8----------------|

--------------------------------------------------------------------------
3:23 - 3:49
"solitude, you are living a lie..."
C#|---------------------------------------------------------|
G#|----------------------------------------6---------6------|
E |----------10-------------12------------------------------|
B |-------12---10--------12---12--------7---------7---------|
F#|--------------10-------------12--------------------------|
B |---888-----------888-------------555-------555-----------|
      ... .  . . .  ...  .  . . .   ... .  .  ... .  .

C#|-------------------------|
G#|-------------------------|
E |---------7-------7-------|
B |-------5-------5---------|
F#|-------------------------|
B |---333-----333-----------|
      ... . . ... . .
-------------------------------------------------------------------------- 
3:50
C#|----------------------------------------------------------|
G#|----------------------------------------------------------|
E |---77777777771010555555555577444444444455222222000000-----|
B |----------------------------------------------------------|
F#|----------------------------------------------------------|
B |----------------------------------------------------------|
End on this note
C#|----------------|
G#|----------------|
E |----7~~~~-------|
B |----------------|
F#|----------------|
B |----------------|

Let me know if i made any mistakes :)
      

************************************

| .   palm mute
| /   slide up
| \   slide down
| h   hammer-on
| p   pull-off
| ~   vibrato
| +   harmonic
| x   Mute note
| b   Bend
| pb  Pre-bend
| br  Bend release
| pbr Pre-bend releas
| brb Bend release bend

************************************
Добавлено: 22.10.2013
Вам также может быть интересно:
Другие материалы по этой песне:
  • Аккорды и текст

Страница создана 22.10.2013
http://primanota.ru/resist-the-thought/solitude-chords.htm
Привет, Гость.
Предлагаем пройти революционный курс по гитаре.
Подарок от PrimaNota.Ru, забирай!