PrimaNota.ru - самый крупный в мире бесплатный архив песенных текстов, аккордов, табулатур и нот


Resgate - 5 50 Am - таба, видео

Регистрация Запомнить меня
Войти через:  Facebook Google Twitter Vk Yandex Mail.ru

Resgate - 5 50 Am - таба, видео

Печатать
Просмотров: 98
Уроки эстрадного вокала в Санкт-Петербурге
Resgate - 5:50 AM

Tom: G
                Intro 4x: G  Bm  Am7

Riff:
E|----------|
B|----------|
G|-----0----|
D|-0h2---2--|
A|----------|
E|----------|

G     Bm  Am7
↑ ↑↓↑ ↓   ↓↓ ↑↓

E|----------|
B|----------|
G|-----0----|
D|-0h2---2--|
A|----------|
E|----------|

G     Bm  Am7
↑ ↑↓↑ ↓   ↓↓ ↑↓

(Variação)
E|-----------|
B|-----------|
G|-0h2-2-0---|
D|---------2-|
A|-----------|
E|-----------|



Primeira Parte:
Em                   D                C9
Abro os olhos sob o mesmo teto, todo dia
            G  Bm  Am7
Tudo outra vez

 Em     D      C9
 ↓ ↑↓↑  ↓ ↑↓↑  ↓ ↑↓↑
 G      Bm     Am7
 ↓ ↑↓↑  ↓ ↑↓↑  ↓ ↑↓↑

Riff - Primeira Parte:
E|-----------|
B|-----------|
G|-0h2--0----|
D|--------2--|
A|-----------|
E|-----------|



Em                    D
Acordo, um tapa no relógio
              C                G   Bm  Am7
A mente tá vazia, são Dez pra seis

 Em     D      C9
 ↓ ↑↓↑  ↓ ↑↓↑  ↓ ↑↓↑

 G      Bm     Am7
 ↓ ↑↓↑  ↓ ↑↓↑  ↓ ↑↓↑
↓ ↑↓↑



Segunda Parte:
 C                            D9(11)
Hoje a morte do meu ego tá fazendo aniversário
   C
Será que eu vou chegar
                  D9(11)
Chegar ao fim de mais um calendário
        G   D  C9            G  D           C9
Eu não sei!          Eu não sei.....eu não sei...
É tudo sempre igual

       C             D9(11)
E|-----0-------------0------------------------|
B|-----1-----1-------3-------3----------------|
G|-----0---0----0----0-----0------------------|
D|-----2-2--------2--4---4--------------------|
A|-0-2-3-------------5------------------------|
E|--------------------------------------------|

       C             D9(11)
E|-----0-------------0------------------------|
B|-----1-----1-------3-----3------------------|
G|-----0---0----0----0-0-----0----------------|
D|-----2-2--------2--4---4-----4--------------|
A|-0-2-3-------------5------------------------|
E|--------------------------------------------|

 G      D      C9
 ↓ ↑↓↑  ↓ ↑↓↑  ↓ ↑↓↑
↓ ↑↓↑ ↓ ↑↓↑

 G      D      C9
 ↓ ↑↓↑  ↓ ↑↓↑  ↓



(Intro)

(Primeira Parte - com variação na letra)
   Em                D                 C
Disseram que o Teu amor é novo a cada dia,
       G  Bm7  Am7
Eu pensei

  Em               D
Quero ouvir a Tua voz
                  C                 G   Bm Am7
Falar o que eu queria, são dez pra seis

(Segunda Parte com variação)
   C                                      D9(11)
Se é pra Te seguir e então matar aquela  velha sede
   C                                     D9(11)
Se é pra Te servir e nunca mais cair na mesma rede
    G   D  C9        G  D      C9
Eu vou!          Eu vou....eu vou...

Te seguir...

(Solo)

   C                                      D9(11)
Se é pra Te seguir e então matar aquela  velha sede
   C                                     D9(11)
Se é pra Te servir e nunca mais cair na mesma rede
    G   D  C9        G  D      C9
Eu vou!          Eu vou....eu vou...

Te seguir...

(Intro)

----------------- Acordes -----------------
Am7 = X 0 2 0 1 0
Bm = X 2 4 4 3 2
Bm7 = X 2 4 2 3 2
C = X 3 2 0 1 0
C9 = X 3 5 5 3 3
D = X X 0 2 3 2
D9(11) = X 5 4 0 3 0
Em = 0 2 2 0 0 0
G = 3 2 0 0 0 3

http://www.bandaresgate.com/
Добавлено: 07.08.2013
Вам также может быть интересно:
Другие материалы по этой песне:
  • Аккорды и текст

Страница создана 07.08.2013
http://primanota.ru/resgate/5-50-am-chords.htm
Привет, Гость.
Предлагаем пройти революционный курс по гитаре.
Подарок от PrimaNota.Ru, забирай!