PrimaNota.ru - самый крупный в мире бесплатный архив песенных текстов, аккордов, табулатур и нот


Reset - Moonlight - таба, видео

Регистрация Запомнить меня
Войти через:  Facebook Google Twitter Vk Yandex Mail.ru

Reset - Moonlight - таба, видео

Печатать
Просмотров: 115
RESET - Moonlight
Album : Radioactive
Tabbed by : Adam Doyon alias Johnny

Intro
e|----------------------------------------------------------------|
B|----------------------------------------------------------------|
G|----------------------------------------------------------------|
D|-8-888-11-111111-6—666-10-101010-8-888-11-111111-6/8-10---------|
A|-8-888-9—-9-9-9—-4-444-8—-8-8-8--8-888-9—-9-9-9—-4/6-8—-6-8-6-4-|
D|-8-888---------------------------8-888--------------------------|
     ...    . . .    ...    . . .    ...    . . .

e|----------------------------------------------------------------||
B|----------------------------------------------------------------||
G|----------------------------------------------------------------||
D|-8-888-11-111111-6—666-10-101010-8-888-11-111111-6/8-1010101010-||
A|-8-888-9—-9-9-9—-4-444-8—-8-8-8--8-888-9—-9-9-9—-4/6-8—8—8—8-8--||
D|-8-888---------------------------8-888--------------------------||
     ...    . . .    ...    . . .    ...    . . .

e|---------------------------------------------------------|
B|---------------------------------------------------------|
G|---------------------------------------------------------|
D|-8-888-8-3/4/6/4-4-444-4-4-4-1-111-1-1/3/4/3-3-333-3-333-|
A|-8-888-8-3/4/6/4-4-444-4-4-4-1-111-1-1/3/4/3-3-333-3-333-|
D|-8-888-8-3/4/6/4-4-444-4-4-4-1-111-1-1/3/4/3-3-333-3-333-|
     ...             ...   .     ...             ...   ...

e|---------------------------------------------------------------|
B|---------------------------------------------------------------|
G|---------------------------------------------------------------|
D|-8-888-8-3/4/6/4-4-444-4-4-4-1-111-1-1/3/4/3-3-333-------------|
A|-8-888-8-3/4/6/4-4-444-4-4-4-1-111-1-1/3/4/3-3-333-4-3-1-8-6-4-|
D|-8-888-8-3/4/6/4-4-444-4-4-4-1-111-1-1/3/4/3-3-333-------------|
     ...             ...   .     ...

e|---------------------------------------------------------|
B|---------------------------------------------------------|
G|---------------------------------------------------------|
D|-8-888-8-3/4/6/4-4-444-4-4-4-1-111-1-1/3/4/3-3-333-3-333-|
A|-8-888-8-3/4/6/4-4-444-4-4-4-1-111-1-1/3/4/3-3-333-3-333-|
D|-8-888-8-3/4/6/4-4-444-4-4-4-1-111-1-1/3/4/3-3-333-3-333-|
     ...             ...   .     ...             ...   ...

e|---------------------------------------------------------------|
B|---------------------------------------------------------------|
G|---------------------------------------------------------------|
D|-8-888-8-3/4/6/4-4-444-4-4-4-1-111-1-1/3/4/3-3-333-------------|
A|-8-888-8-3/4/6/4-4-444-4-4-4-1-111-1-1/3/4/3-3-333-4-3-1-8-6-4-|
D|-8-888-8-3/4/6/4-4-444-4-4-4-1-111-1-1/3/4/3-3-333-------------|
     ...             ...   .     ...

e|----------------------------------------------------------|
B|----------------------------------------------------------|
G|----------------------------------------------------------|
D|-8-888-8-3/4/6/4-4-444-4-4-4-1-111-1-1/3/4/3-3-333-101010-|
A|-8-888-8-3/4/6/4-4-444-4-4-4-1-111-1-1/3/4/3-3-333-8-8-8--|
D|-8-888-8-3/4/6/4-4-444-4-4-4-1-111-1-1/3/4/3-3-333--------|
     ...             ...   .     ...             ...

e|---------------------------------------------------------------|
B|---------------------------------------------------------------|
G|---------------------------------------------------------------|
D|-8-888-8-3/4/6/4-4-444-4-4-4-1-111-1-1/3/4/3-3-333-------------|
A|-8-888-8-3/4/6/4-4-444-4-4-4-1-111-1-1/3/4/3-3-333-4-3-1-8-6-4-|
D|-8-888-8-3/4/6/4-4-444-4-4-4-1-111-1-1/3/4/3-3-333-------------|
     ...             ...   .     ...
e|----------------------------------------------------------|
B|----------------------------------------------------------|
G|----------------------------------------------------------|
D|-8-888-8-3/4/6/4-4-444-4-4-4-1-111-1-1/3/4/3-3-333-101010-|
A|-8-888-8-3/4/6/4-4-444-4-4-4-1-111-1-1/3/4/3-3-333-8-8-8--|
D|-8-888-8-3/4/6/4-4-444-4-4-4-1-111-1-1/3/4/3-3-333--------|
     ...             ...   .     ...             ...

e|---------------------------------------------------------------|
B|---------------------------------------------------------------|
G|---------------------------------------------------------------|
D|-8-888-8-3/4/6/4-4-444-4-4-4-1-111-1-1/3/4/3-3-333-------------|
A|-8-888-8-3/4/6/4-4-444-4-4-4-1-111-1-1/3/4/3-3-333-4-3-1-8-6-4-|
D|-8-888-8-3/4/6/4-4-444-4-4-4-1-111-1-1/3/4/3-3-333-------------|
     ...             ...   .     ...

e|-----------------------------------------------------------------|
B|-----------------------------------------------------------------|
G|-----------------------------------------------------------------|
D|-8-888-8-888-11-111111-11-111111-6-666-6-666-10-101010-10-101010-|
A|-8-888-8-888-9—-9-9-9—-9—-9-9-9—-4-444-4-444-8--8-8-8—-8—-8-8-8--|
D|-8-888-8-888-----------------------------------------------------|
     ...   ...    . . .     . . .    ...   ...    . . .     . . .
e|-----------------------------------------------------------------|
B|-----------------------------------------------------------------|
G|-----------------------------------------------------------------|
D|-8-888-8-888-11-111111-11-111111-6-666-6-666-10-101010-10-101010-|
A|-8-888-8-888-9—-9-9-9—-9—-9-9-9—-4-444-4-444-8--8-8-8—-8—-8-8-8--|
D|-8-888-8-888-----------------------------------------------------|
     ...   ...    . . .     . . .    ...   ...    . . .     . . .

e|-----------------------|
B|-----------------------|
G|-----------------9-10--|
D|---------8-10-11-------|
A|-8-10-11---------------|
D|-----------------------|


Chorus
e|----------------------------------------------------------------|
B|----------------------------------------------------------------|
G|----------------------------------------------------------------|
D|-8-888-11-111111-6—666-10-101010-8-888-11-111111-6/8-10---------|
A|-8-888-9—-9-9-9—-4-444-8—-8-8-8--8-888-9—-9-9-9—-4/6-8—-6-8-6-4-|
D|-8-888---------------------------8-888--------------------------|
     ...    . . .    ...    . . .    ...    . . .

e|----------------------------------------------------------------|
B|----------------------------------------------------------------|
G|----------------------------------------------------------------|
D|-8-888-11-111111-6—666-10-101010-8-888-11-111111-6/8-1010101010-|
A|-8-888-9—-9-9-9—-4-444-8—-8-8-8--8-888-9—-9-9-9—-4/6-8—8—8—8-8--|
D|-8-888---------------------------8-888--------------------------|
     ...    . . .    ...    . . .    ...    . . .


After the chorus repeat the same riff. I'm sorry that I don't have the outro.

Outro (??)
e|-----------------------------------------------------------|
B|-----------------------------------------------------------|
G|-----------------------------------------------------------|
D|-----------------------------------------------------------|
A|-----------------------------------------------------------|
D|-----------------------------------------------------------|
Добавлено: 07.05.2012
Другие материалы по этой песне:
  • Аккорды и текст

Страница создана 07.05.2012
http://primanota.ru/reset/moonlight-chords.htm
Привет, Гость.
Предлагаем пройти революционный курс по гитаре.
Подарок от PrimaNota.Ru, забирай!