PrimaNota.ru - самый крупный в мире бесплатный архив песенных текстов, аккордов, табулатур и нот


Requiem - Stare Device - таба, видео

Регистрация Запомнить меня
Войти через:  Facebook Google Twitter Vk Yandex Mail.ru

Requiem - Stare Device - таба, видео

Печатать
Просмотров: 106
REQUIEM - Stare Device
From album MCMXCV,X (1995)

Legend:
/ - shift slide
~ - vibrate
b - bend (full)
a - artificial harmonics
n - normal harmonics
h - hammer on
p - pull off
T - tapping
• - palm muted

RIFF 1
Guitar 1
e|-----------------------------------|-----------------------|
B|--10---10/6---6---8---8------------|--10---10/6--------8---|
G|---9----9/5---5---7---7------------|---9----9/5--------7---|
D|---7----7/3---3---5---5------------|---7----7/3--------5---|
A|-----------------------------------|-----------------------|
E|-----------------------------------|-----------------------|
Guitar 2
e|-----------------------------------|-----------------------|
B|-----------------------------------|-------------------8---|
G|-----------------------------------|-----------------7-7---|
D|--------------------------5n-5a~---|--------------5n---5---|
A|-----------------------------------|-----------------------|
E|-----------------------------------|-----------------------|

Guitar 1
e|-----------------------------------|-----------------------|
B|--10---10/6---6---8---8------------|--10---10/6------------|
G|---9----9/5---5---7---7------------|---9----9/5------------|
D|---7----7/3---3---5---5------------|---7----7/3------------|
A|-----------------------------------|-------------------5---|
E|-----------------------------------|--------------1-1--3---|
                                                    • •

RIFF 2 (4x)
e|---------------------------------------------------|
B|---------------------------------------------------|
G|---------------------------------------------------|
D|--2-2-2-2-2---2---2--5--------------5/4--2---5-5---|
A|--0-0-0-0-0---0---0--3--0--5-5-5-5--3/2--0---3-3---|
E|----------------3----------3-3-3-3-----------------|
                  •          • • • •

RIFF 3
e|--------------------------------------------------------|
B|--------------------------------------------------------|
G|--------------------------------------------------------|
D|----------5---------5-----------------------------------|
A|--3-----5-3-7-----5-3-3-----3---3-------5------5----5---|
E|--1-----3---5-----3---1-----1-0-1---3-3-3--3-3-3--3-3---|
                                •     • •    • •    •

RIFF 2 (4x)
e|---------------------------------------------------|
B|---------------------------------------------------|
G|---------------------------------------------------|
D|--2-2-2-2-2---2---2--5--------------5/4--2---5-5---|
A|--0-0-0-0-0---0---0--3--0--5-5-5-5--3/2--0---3-3---|
E|----------------3----------3-3-3-3-----------------|
                  •          • • • •

RIFF 3
e|--------------------------------------------------------|
B|--------------------------------------------------------|
G|--------------------------------------------------------|
D|----------5---------5-----------------------------------|
A|--3-----5-3-7-----5-3-3-----3---3-------5------5----5---|
E|--1-----3---5-----3---1-----1-0-1---3-3-3--3-3-3--3-3---|
                                •     • •    • •    •

RIFF 4  (2x)
e|--------------------------------------------------|
B|--------------------------------------------------|
G|--------------------------------------------------|
D|--9--7--5-----9--7---------------2----------------|
A|--7--5--3-----7--5--5-----0-2-3--0-----3-2-3--5---|
E|--------------------3-------------------------3---|

SOLO
e|---------------------------------------------------------------------------------|
B|--5-5---------5-5----------------------------------------------------------------|
G|--5-5---------5-5---------5--7p5-------------------------------------------------|
D|------7p5-7-------7p5-7----------7p5-7----7p5h7p5---5------------------------7---|
A|--------------------------------------------------7---7-3-5p3--------3---3/5-----|
E|--------------------------------------------------------------5--5-5---5---------|

e|---------------------------------------------------------------------------------------|
B|--5-5---------5-5---------5--8b-8---8p5h8p5--------------------------------------------|
G|--5-5---------5-5---------------------------7p5h7p5----------14p12h14p12h14p12h14p12---|
D|------7p5-7-------7p5-7-----------------------------7-7--7-----------------------------|
A|---------------------------------------------------------------------------------------|
E|---------------------------------------------------------------------------------------|

e|-----------------------------------------------------------|
B|--13b--13p12h13---13p12h13p12------------------------------|
G|------------------------------14p12h14p12----------12------|
D|------------------------------------------14p12h14----14---|
A|-----------------------------------------------------------|
E|-----------------------------------------------------------|

e|-------------------------------------------------------|
B|--------------13a----------------------15b--15b--15b---|
G|--14p12----12-----14--14p12h14--14p12------------------|
D|--------14---------------------------------------------|
A|-------------------------------------------------------|
E|-------------------------------------------------------|

RIFF 5
e|-------------------------------------|
B|-------------------------------------|
G|-------------------------------------|
D|-------------------------------------|
A|---3-----3---3-------5------5----5---|
E|---1-----1-0-1---3-3-3--3-3-3--3-3---|
             •     • •    • •    •

RIFF 4  (4x... fadeaway)
e|--------------------------------------------------|
B|--------------------------------------------------|
G|--------------------------------------------------|
D|--9--7--5-----9--7---------------2----------------|
A|--7--5--3-----7--5--5-----0-2-3--0-----3-2-3--5---|
E|--------------------3-------------------------3---|
Добавлено: 16.03.2012
Вам также может быть интересно:
Другие материалы по этой песне:
  • Аккорды и текст

Страница создана 16.03.2012
http://primanota.ru/requiem/stare-device-chords.htm
Привет, Гость.
Предлагаем пройти революционный курс по гитаре.
Подарок от PrimaNota.Ru, забирай!