PrimaNota.ru - самый крупный в мире бесплатный архив песенных текстов, аккордов, табулатур и нот


Repo The Genetic Opera - Zydrate Anatomy - таба, видео

Регистрация Запомнить меня
Войти через:  Facebook Google Twitter Vk Yandex Mail.ru

Repo The Genetic Opera - Zydrate Anatomy - таба, видео

Печатать
Просмотров: 216
Уроки эстрадного вокала в Санкт-Петербурге
-------------------------------------------------------------------------------
                             Zydrate Anatomy - Repo! The Genetic Opera
-------------------------------------------------------------------------------
Tabbed by: MangaRox
Email: mangaroxx@yahoo.com

Tuning:EBGDAD

READ THIS: As of right now, this is only the rhythm. I will put it the lead-y stuff later.
During the song, they only play chords on certain parts, so look for the * on the words, 
that's when they play the power chords below the lyrics.

I can't feel nothing at all..
Intro:
e|---------------------------------------|
B|---------------------------------------|
G|---------------------------------------|
D|33-3-3-433-3-3-433-3-3-433-3-3-433-----|
A|33-3-3-433-3-3-433-3-3-433-3-3-433-----|
D|33-3-3-433-3-3-433-3-3-433-3-3-433-----|

Drug Market..(for the entire verse, you only play this once.)
e|---------------------------|
B|---------------------------|
G|---------------------------|
D|3--------------------------|
A|3--------------------------|
E|3--------------------------|

*Zydrate comes in a little glass vial..
A *little glass vial? (A little glass vial)
And the *little glass vial goes into the gun like a *battery(pant, pant)
And the *Zydrate gun goes somewhere against your *anatomy (pant, pant)
And when the *gun goes off, it sparks, and you're ready for *surgery
e|---------|
B|---------|
G|---------|
D|3-3------|
A|3-3------|
E|3-3------|


Surgery..


*Graverobber..Graverobber (only play once this verse, and let ring. Slide up to 10 at 
second 'Graverobber')
e|---------------------------|
B|---------------------------|
G|---------------------------|
D|3-----/10------------------|
A|3-----/10------------------|
E|3-----/10------------------|


And *Amber Sweet is addicted to the knife
*Addicted to the knife? (Addicted to the knife)
And *addicted to the knife, she needs a little help with the *agony (Agony!)
And a *little help comes in a little glass vial, in a *gun pressed against her anatomy
And when the *gun goes off, Miss Sweet is ready for *surgery
e|---------|
B|---------|
G|---------|
D|3-3------|
A|3-3------|
E|3-3------|

Surgery..

Graverobber.. Graverobber..
e|---------------------------|
B|---------------------------|
G|---------------------------|
D|3---------------/10--8-/10-|
A|---------------------------|
E|---------------------------|

Break:
(It's clean
It's clear
It's pure
It's rare [x6]
It's takes you there (x2)
Before you cut
A change inside
I can't feel nothing at all
Feel alive!)

Mag's *contract's got some mighty fine print
Some mighty fine print? (Some mighty... fine... print)
And that *mighty fine print puts Mag in a mighty fine predicament
If Mag *up and splits, her eyes are forfeit, And if *GeneCo and Rotti so will it
Then a *Repo Man will come And she'll pay for that *surgery
Sugery..
e|---------|
B|---------|
G|---------|
D|3-3------|
A|3-3------|
E|3-3------|

Surgery, Surgery (I can't feel nothing at all..) [They say this approximately 12 times]

e|---------------------------------------|
B|---------------------------------------|
G|---------------------------------------|
D|33-3-3-433-3-3-433-3-3-433-3-3-433-----|
A|33-3-3-433-3-3-433-3-3-433-3-3-433-----|
D|33-3-3-433-3-3-433-3-3-433-3-3-433-----|

Repeat until end!


I hope it was okay, as I said earlier it will be updated to have the lead stuff in it.
This is my first legitimate tablature so hopefully it isn't too bad.
If you have any questions, comments or concerns please send me an email and I will fix 
this tab to the best of my ability. ^^

************************************

| /   slide up
| \   slide down
| h   hammer-on
| p   pull-off
| ~   vibrato
| +   harmonic
| x   Mute note
| b   Bend
| pb  Pre-bend
| br  Bend release
| pbr Pre-bend release
| brb Bend release bend

************************************
Добавлено: 14.06.2013
Вам также может быть интересно:
Другие материалы по этой песне:
  • Аккорды и текст

Страница создана 14.06.2013
http://primanota.ru/repo-the-genetic-opera/zydrate-anatomy-chords.htm
Привет, Гость.
Предлагаем пройти революционный курс по гитаре.
Подарок от PrimaNota.Ru, забирай!