PrimaNota.ru - самый крупный в мире бесплатный архив песенных текстов, аккордов, табулатур и нот


Replacements - Otto - текст песни, бас-таба, видео

Регистрация Запомнить меня
Войти через:  Facebook Google Twitter Vk Yandex Mail.ru

Replacements - Otto - текст песни, бас-таба, видео

Печатать
Просмотров: 35
Уроки эстрадного вокала в Санкт-Петербурге
Авторы: Paul Westerberg

Intro
G|------------------------------|---------------------------|
D|------------------------------|---------------------------|
A|-------------------0--2--0--2-|-------------------0--2--0-|
E|-3-3-3-3--3-3-3-3-------------|-3-3-3-3--3-3-3-3----------|

G|------------------------------|---------------------------|
D|------------------------------|---------------------------|
A|-------------------0--2--0--2-|-------------------0--2--0-|
E|-3-3-3-3--3-3-3-3-------------|-3-3-3-3--3-3-3-3----------|


Verse ("Everybody Everywhere Otto Otto...")
G|------------------------------|---------------------------|
D|------------------------------|---------------------------|
A|-------------------0--2--0--2-|-------------------0--2--0-|
E|-3-3-3-3--3-3-3-3-------------|-3-3-3-3--3-3-3-3----------|

G|------------------------------|---------------------------|
D|------------------------------|---------------------------|
A|-------------------0--2--0--2-|-------------------0--2--0-|
E|-3-3-3-3--3-3-3-3-------------|-3-3-3-3--3-3-3-3----------|
                                                                       
G|------------------|---------------|------------------|---------------|
D|------------------|---------------|------------------|---------------|
A|-------0--2--0--2-|-------0--2--0-|-------0--2--0--2-|-------0--2--0-|
E|-3--3-------------|-3--3----------|-3--3-------------|-3--3----------|


Verse ("Everybody Everywhere Otto Otto...")
G|------------------------------|---------------------------|
D|------------------------------|---------------------------|
A|-------------------0--2--0--2-|-------------------0--2--0-|
E|-3-3-3-3--3-3-3-3-------------|-3-3-3-3--3-3-3-3----------|

G|------------------------------|---------------------------|
D|------------------------------|---------------------------|
A|-------------------0--2--0--2-|-------------------0--2--0-|
E|-3-3-3-3--3-3-3-3-------------|-3-3-3-3--3-3-3-3----------|
                                                                       
G|------------------|---------------|------------------|---------------|
D|------------------|---------------|------------------|---------------|
A|-------0--2--0--2-|-------0--2--0-|-------0--2--0--2-|-------0--2--0-|
E|-3--3-------------|-3--3----------|-3--3-------------|-3--3----------|


Verse ("Everybody Everywhere Otto Otto...")
G|------------------------------|---------------------------|
D|------------------------------|---------------------------|
A|-------------------0--2--0--2-|-------------------0--2--0-|
E|-3-3-3-3--3-3-3-3-------------|-3-3-3-3--3-3-3-3----------|

G|------------------------------|---------------------------|
D|------------------------------|---------------------------|
A|-------------------0--2--0--2-|-------------------0--2--0-|
E|-3-3-3-3--3-3-3-3-------------|-3-3-3-3--3-3-3-3----------|
                                                                       
G|------------------|---------------|------------------|---------------|
D|------------------|---------------|------------------|---------------|
A|-------0--2--0--2-|-------0--2--0-|-------0--2--0--2-|-------0--2--0-|
E|-3--3-------------|-3--3----------|-3--3-------------|-3--3----------|


Bridge
G|---------------------|-------------------|---------------------|------------------|
D|---------------------|-------------------|---------------------|------------------|
A|----------5--7--5--7-|-----------5--7--5-|----------5--7--5--7-|-----------5--4---|
E|-7-7-7-7-------------|-7-7-7-7-----------|-7-7-7-7-------------|-7-7-7-7----------|

Blues part
G|----------------------------------------|------------------------------------------------|
D|----------------------------------------|------------------------------------------------|
A|-2-2--4-4--2-2--4-4--2-2--4-4--2-2--4-4-|-2-2--4-4--2-2--4-4-----------------------------|
E|----------------------------------------|---------------------2-2-2--2-2-2--2-2-2--2-2-2-|

G|--------------------------------------------------------------------------------|
D|--------------------------------------------------------------------------------|
A|-2-2--4-4--2-2--4-4--2-2--4-4--2-2--4-4--2-2--4-4--2-2--4-4--2-2--4-4--2-2--4-4-|
E|--------------------------------------------------------------------------------|

G|--------------------------------------------------------------------------------|-------------------------|
D|-2-2--4-4--2-2--4-4--2-2--4-4--2-2--4-4-----------------------------------------|-4--4--4--4---2--2--2--2-|
A|-----------------------------------------2-2--4-4--2-2--4-4--2-2--4-4--2-2--4-4-|-------------------------|
E|--------------------------------------------------------------------------------|-------------------------|


Outro
G|------------------------------|---------------------------|
D|------------------------------|---------------------------|
A|-------------------0--2--0--2-|-------------------0--2--0-|
E|-3-3-3-3--3-3-3-3-------------|-3-3-3-3--3-3-3-3----------|

G|------------------------------|---------------------------|
D|------------------------------|---------------------------|
A|-------------------0--2--0--2-|-------------------0--2--0-|
E|-3-3-3-3--3-3-3-3-------------|-3-3-3-3--3-3-3-3----------|

G|------------------------------|---------------------------|
D|------------------------------|---------------------------|
A|-------------------0--2--0--2-|-------------------0--2--0-|
E|-3-3-3-3--3-3-3-3-------------|-3-3-3-3--3-3-3-3----------|

G|------------------------------|---------------------------|
D|------------------------------|---------------------------|
A|-------------------0--2--0--2-|-------------------0--2--0-|
E|-3-3-3-3--3-3-3-3-------------|-3-3-3-3--3-3-3-3----------|

G|---------------------|-------------------|---------------------|-------------------------------|
D|---------------------|-------------------|---------------------|-------------------------------|
A|----------5--7--5--7-|-----------5--7--5-|----------5--7--5--7-|------7----5----4------------2-|
E|-7-7-7-7-------------|-7-7-7-7-----------|-7-7-7-7-------------|-7-----------------------------|
Добавлено: 08.10.2017
Другие материалы по этой песне:
  • Аккорды и текст

Страница создана 07.12.2013
http://primanota.ru/replacements/otto-chords.htm
Привет, Гость.
Предлагаем пройти революционный курс по гитаре.
Подарок от PrimaNota.Ru, забирай!