PrimaNota.ru - самый крупный в мире бесплатный архив песенных текстов, аккордов, табулатур и нот


Replacements - I Don't Know - текст песни, бас-таба, видео

Регистрация Запомнить меня
Войти через:  Facebook Google Twitter Vk Yandex Mail.ru

Replacements - I Don't Know - текст песни, бас-таба, видео

Печатать
Просмотров: 30
Уроки эстрадного вокала в Санкт-Петербурге
Авторы: Tommy Stinson, Chris Mars, Paul Westerberg

Verse            
G|-----------------------------------|-----------------------------------|
D|-----------------------------------|-----------------------------------|
A|---------------------------5---4---|---------------------------5---4---|
E|-4-4/2-2--4-4/2-2--4-4/2-----------|-4-4/2-2--4-4/2-2--4-4/2-----------|

G|-----------------------------------|-----------------------------------|
D|-----------------------------------|-----------------------------------|
A|---------------------------5---4---|---------------------------5---4---|
E|-4-4/2-2--4-4/2-2--4-4/2-----------|-4-4/2-2--4-4/2-2--4-4/2-----------|

G|-----------------------------------|-----------------------------------|
D|-----------------------------------|-----------------------------------|
A|---------------------------5---4---|---------------------------5---4---|
E|-4-4/2-2--4-4/2-2--4-4/2-----------|-4-4/2-2--4-4/2-2--4-4/2-----------|

G|-----------------------------------|-----------------------------------|
D|-----------------------------------|-----------------------------------|
A|---------------------------5---4---|---------------------------5---4---|
E|-4-4/2-2--4-4/2-2--4-4/2-----------|-4-4/2-2--4-4/2-2--4-4/2-----------|


Chorus ("One Foot In The Door...")
G|------------------------------------|------------------------------------|
D|------------------------------------|------------------------------------|
A|------------------------------------|--------------------7-7-7-7-7-7-7-7-|
E|-2-2-2-2-2-2-2-2-2--0-0-0-0-0-0-0-0-|-2-2-2-2-2-2-2-2-2------------------|

G|------------------------------------|------------------------------------|
D|------------------------------------|----------------------2---4---5---6-|
A|------------------------------------|------------------------------------|
E|-2-2-2-2-2-2-2-2-2--0-0-0-0-0-0-0-0-|-2-2-2-2-2-2-2-2-2--0---2---3---4---|


Verse            
G|-----------------------------------|-----------------------------------|
D|-----------------------------------|-----------------------------------|
A|---------------------------5---4---|---------------------------5---4---|
E|-4-4/2-2--4-4/2-2--4-4/2-----------|-4-4/2-2--4-4/2-2--4-4/2-----------|

G|-----------------------------------|-----------------------------------|
D|-----------------------------------|-----------------------------------|
A|---------------------------5---4---|---------------------------5---4---|
E|-4-4/2-2--4-4/2-2--4-4/2-----------|-4-4/2-2--4-4/2-2--4-4/2-----------|

G|-----------------------------------|-----------------------------------|
D|-----------------------------------|-----------------------------------|
A|---------------------------5---4---|---------------------------5---4---|
E|-4-4/2-2--4-4/2-2--4-4/2-----------|-4-4/2-2--4-4/2-2--4-4/2-----------|

G|-----------------------------------|-----------------------------------|
D|-----------------------------------|-----------------------------------|
A|---------------------------5---4---|---------------------------5---4---|
E|-4-4/2-2--4-4/2-2--4-4/2-----------|-4-4/2-2--4-4/2-2--4-4/2-----------|


Chorus ("One Foot In The Door...")
G|------------------------------------|------------------------------------|
D|------------------------------------|------------------------------------|
A|------------------------------------|--------------------7-7-7-7-7-7-7-7-|
E|-2-2-2-2-2-2-2-2-2--0-0-0-0-0-0-0-0-|-2-2-2-2-2-2-2-2-2------------------|

G|------------------------------------|------------------------------------|
D|------------------------------------|----------------------2---4---5---6-|
A|------------------------------------|------------------------------------|
E|-2-2-2-2-2-2-2-2-2--0-0-0-0-0-0-0-0-|-2-2-2-2-2-2-2-2-2--0---2---3---4---|

G|------------------------------------|------------------------------------|
D|------------------------------------|------------------------------------|
A|------------------------------------|--------------------7-7-7-7-7-7-7-7-|
E|-2-2-2-2-2-2-2-2-2--0-0-0-0-0-0-0-0-|-2-2-2-2-2-2-2-2-2------------------|

G|------------------------------------|------------------------------------|
D|------------------------------------|----------------------2---4---5---6-|
A|------------------------------------|------------------------------------|
E|-2-2-2-2-2-2-2-2-2--0-0-0-0-0-0-0-0-|-2-2-2-2-2-2-2-2-2--0---2---3---4---|


Bridge                     ("Wee-oo")                          ("Wee-oo")  
G|-----------------------------------|-----------------------------------|
D|-----------------------------------|-----------------------------------|
A|---------------------------5---4---|---------------------------5---4---|
E|-4-4/2-2--4-4/2-2--4-4/2-----------|-4-4/2-2--4-4/2-2--4-4/2-----------|

                           ("Wee-oo")                          ("Wee-oo")  ("1-2-3-4-5-6-7-8-9-10-11-12")
G|-----------------------------------|-----------------------------------|--------------------------------|
D|-----------------------------------|-----------------------------------|--------------------------------|
A|---------------------------5---4---|---------------------------5---4---|--------------------------------|
E|-4-4/2-2--4-4/2-2--4-4/2-----------|-4-4/2-2--4-4/2-2--4-4/2-----------|-4------------------------------|
                       
                           ("Wee-oo")                          ("Wee-oo")  
G|-----------------------------------|-----------------------------------|
D|-----------------------------------|-----------------------------------|
A|---------------------------5---4---|---------------------------5---4---|
E|-4-4/2-2--4-4/2-2--4-4/2-----------|-4-4/2-2--4-4/2-2--4-4/2-----------|

                           ("Wee-oo")                          ("Wee-oo")  
G|-----------------------------------|-----------------------------------|
D|-----------------------------------|-----------------------------------|
A|---------------------------5---4---|---------------------------5---4---|
E|-4-4/2-2--4-4/2-2--4-4/2-----------|-4-4/2-2--4-4/2-2--4-4/2-----------|


Chorus ("One Foot In The Door...")
G|------------------------------------|------------------------------------|
D|------------------------------------|------------------------------------|
A|------------------------------------|--------------------7-7-7-7-7-7-7-7-|
E|-2-2-2-2-2-2-2-2-2--0-0-0-0-0-0-0-0-|-2-2-2-2-2-2-2-2-2------------------|

G|------------------------------------|------------------------------------|
D|------------------------------------|------------------------------------|
A|------------------------------------|--------------------7-7-7-7-7-7-7-7-|
E|-2-2-2-2-2-2-2-2-2--0-0-0-0-0-0-0-0-|-2-2-2-2-2-2-2-2-2------------------|

G|------------------------------------|------------------------------------|
D|------------------------------------|------------------------------------|
A|------------------------------------|--------------------7-7-7-7-7-7-7-7-|
E|-2-2-2-2-2-2-2-2-2--0-0-0-0-0-0-0-0-|-2-2-2-2-2-2-2-2-2------------------|

G|------------------------------------|------------------------------------|
D|------------------------------------|----------------------2---4---5---6-|
A|------------------------------------|------------------------------------|
E|-2-2-2-2-2-2-2-2-2--0-0-0-0-0-0-0-0-|-2-2-2-2-2-2-2-2-2--0---2---3---4---|


Outro                      ("Wee-oo")                          ("Wee-oo")  
G|-----------------------------------|-----------------------------------|
D|-----------------------------------|-----------------------------------|
A|---------------------------5---4---|---------------------------5---4---|
E|-4-4/2-2--4-4/2-2--4-4/2-----------|-4-4/2-2--4-4/2-2--4-4/2-----------|

                           ("Wee-oo")                          ("Wee-oo")  
G|-----------------------------------|-----------------------------------|
D|-----------------------------------|-----------------------------------|
A|---------------------------5---4---|---------------------------5---4---|
E|-4-4/2-2--4-4/2-2--4-4/2-----------|-4-4/2-2--4-4/2-2--4-4/2-----------|

                           ("Wee-oo")                          ("Wee-oo")  
G|-----------------------------------|-----------------------------------|
D|-----------------------------------|-----------------------------------|
A|---------------------------5---4---|---------------------------5---4---|
E|-4-4/2-2--4-4/2-2--4-4/2-----------|-4-4/2-2--4-4/2-2--4-4/2-----------|

                           ("Wee-oo")                          ("Wee-oo")  
G|-----------------------------------|-----------------------------------|
D|-----------------------------------|-----------------------------------|
A|---------------------------5---4---|---------------------------5---4---|
E|-4-4/2-2--4-4/2-2--4-4/2-----------|-4-4/2-2--4-4/2-2--4-4/2-----------|

                           ("Wee-oo")                          ("Wee-oo")  
G|-----------------------------------|-----------------------------------|
D|-----------------------------------|-----------------------------------|
A|---------------------------5---4---|---------------------------5---4---|
E|-4-4/2-2--4-4/2-2--4-4/2-----------|-4-4/2-2--4-4/2-2--4-4/2-----------|

                           ("Wee-oo")                          ("Wee-oo")  
G|-----------------------------------|-----------------------------------|
D|-----------------------------------|-----------------------------------|
A|---------------------------5---4---|---------------------------5---4---|
E|-4-4/2-2--4-4/2-2--4-4/2-----------|-4-4/2-2--4-4/2-2--4-4/2-----------|


***********************************

| /   Slide-up

***********************************

That's the whole song, in order. 



The Chorus for the bass is kinda bland, when i play i follow the guitar part
which would be:

Chorus
G|------------------------------------|-------------------------------------|
D|------------------------------------|-------------------------------------|
A|------------------------------------|---------------------7-7-7-7-7-7-7-7-|
E|-2-2-2-2-2-2-2-2-2--0-0-0-0-0-0-0-0-|-2-2-2-2-2--5---4--------------------|

G|------------------------------------|-------------------------------------|
D|------------------------------------|-----------------------2---4---5---6-|
A|------------------------------------|-------------------------------------|
E|-2-2-2-2-2-2-2-2-2--0-0-0-0-0-0-0-0-|-2-2-2-2-2--5---4----0---2---3---4---|

Добавлено: 08.10.2017
Другие материалы по этой песне:
  • Аккорды и текст

Страница создана 29.03.2012
http://primanota.ru/replacements/i-dont-know-chords.htm
Привет, Гость.
Предлагаем пройти революционный курс по гитаре.
Подарок от PrimaNota.Ru, забирай!