PrimaNota.ru - самый крупный в мире бесплатный архив песенных текстов, аккордов, табулатур и нот


Replacements - Don't Ask Why - текст песни, бас-таба, видео

Регистрация Запомнить меня
Войти через:  Facebook Google Twitter Vk Yandex Mail.ru

Replacements - Don't Ask Why - текст песни, бас-таба, видео

Печатать
Просмотров: 18
Уроки эстрадного вокала в Санкт-Петербурге
Intro
G|--------------------------------------------------------------------|
D|--------------------------------------------------------------------|
A|-5-5-5-5-5-5-5-5--5-5-5-5-5-5-5-5--5-5-5-5-5-5-5-5--5-5-5-5-5-5-5-5-|
E|--------------------------------------------------------------------|

Verse 
G|----------------------------------------------------|-------------------------------------------|
D|-3-3-3-3-3-3-3-3------------------------------------|-3-3-3-3-3-3-3-3---------------------------|
A|-----------------5-5-5-5-5-5-5-5--1-1--0-0--3-3-3-3-|-----------------5-5-5-5-5-5-5-5--1-1--0-0-|
E|----------------------------------------------------|-------------------------------------------|

G|----------------------------------|-7-7-7-7-7-7-7-7--7-7-7-7-7-7-7-7-|
D|----------------------------------|----------------------------------|
A|-5-5-5-5-5-5-5-5--5-5-5-5-5-5-5-5-|----------------------------------|
E|----------------------------------|----------------------------------|

G|----------------------------------------------------|-------------------------------------------|
D|-3-3-3-3-3-3-3-3------------------------------------|-3-3-3-3-3-3-3-3---------------------------|
A|-----------------5-5-5-5-5-5-5-5--1-1--0-0--3-3-3-3-|-----------------5-5-5-5-5-5-5-5--1-1--0-0-|
E|----------------------------------------------------|-------------------------------------------|

G|----------------------------------|-7-7-7-7-7-7-7-7--7-7-7-7-7-7-7-7-|
D|----------------------------------|----------------------------------|
A|-5-5-5-5-5-5-5-5--5-5-5-5-5-5-5-5-|----------------------------------|
E|----------------------------------|----------------------------------|

Chorus 
G|---------------|---------------|---------------|
D|---------------|---------------|---------------|
A|-1-1--0--------|-1-1--0--------|-1-1--0--------|
E|---------1--1--|---------1--1--|---------1--1--|

G|----------------------------------|-7-7-7-7-7-7-7-7--7-7-7-7-7-7-7-7-|
D|----------------------------------|----------------------------------|
A|-5-5-5-5-5-5-5-5--5-5-5-5-5-5-5-5-|----------------------------------|
E|----------------------------------|----------------------------------|

Verse
G|----------------------------------------------------|-------------------------------------------|
D|-3-3-3-3-3-3-3-3------------------------------------|-3-3-3-3-3-3-3-3---------------------------|
A|-----------------5-5-5-5-5-5-5-5--1-1--0-0--3-3-3-3-|-----------------5-5-5-5-5-5-5-5--1-1--0-0-|
E|----------------------------------------------------|-------------------------------------------|

G|----------------------------------|-7-7-7-7-7-7-7-7--7-7-7-7-7-7-7-7-|
D|----------------------------------|----------------------------------|
A|-5-5-5-5-5-5-5-5--5-5-5-5-5-5-5-5-|----------------------------------|
E|----------------------------------|----------------------------------|

Chorus 
G|---------------|---------------|---------------|
D|---------------|---------------|---------------|
A|-1-1--0--------|-1-1--0--------|-1-1--0--------|
E|---------1--1--|---------1--1--|---------1--1--|

G|----------------------------------|-7-7-7-7-7-7-7-7--7-7-7-7-7-7-7-7-|
D|----------------------------------|----------------------------------|
A|-5-5-5-5-5-5-5-5--5-5-5-5-5-5-5-5-|----------------------------------|
E|----------------------------------|----------------------------------|

Solo
G|----------------------------------|----------------------------------|----------------------------------|
D|----------------------------------|----------------------------------|----------------------------------|
A|-6-6-6-6-6-6-6-6--5-5-5-5-5-5-5-5-|-6-6-6-6-6-6-6-6--5-5-5-5-5-5-5-5-|-6-6-6-6-6-6-6-6--5-5-5-5-5-5-5-5-|
E|----------------------------------|----------------------------------|----------------------------------|

Verse
G|----------------------------------------------------|-------------------------------------------|
D|-3-3-3-3-3-3-3-3------------------------------------|-3-3-3-3-3-3-3-3---------------------------|
A|-----------------5-5-5-5-5-5-5-5--1-1--0-0--3-3-3-3-|-----------------5-5-5-5-5-5-5-5--1-1--0-0-|
E|----------------------------------------------------|-------------------------------------------|

G|----------------------------------|-7-7-7-7-7-7-7-7--7-7-7-7-7-7-7-7-|
D|----------------------------------|----------------------------------|
A|-5-5-5-5-5-5-5-5--5-5-5-5-5-5-5-5-|----------------------------------|
E|----------------------------------|----------------------------------|

Chorus 
G|---------------|---------------|---------------|----------------------------------|
D|---------------|---------------|---------------|----------------------------------|
A|-1-1--0--------|-1-1--0--------|-1-1--0--------|-5-5-5-5-5-5-5-5--5-5-5-5-5-5-5-5-|
E|---------1--1--|---------1--1--|---------1--1--|----------------------------------|

Добавлено: 08.10.2017
Другие материалы по этой песне:
  • Аккорды и текст

Страница создана 21.05.2012
http://primanota.ru/replacements/dont-ask-why-chords.htm
Привет, Гость.
Предлагаем пройти революционный курс по гитаре.
Подарок от PrimaNota.Ru, забирай!