PrimaNota.ru - самый крупный в мире бесплатный архив песенных текстов, аккордов, табулатур и нот


Replacements - Answering Machine - текст песни, таба, видео

Регистрация Запомнить меня
Войти через:  Facebook Google Twitter Vk Yandex Mail.ru

Replacements - Answering Machine - текст песни, таба, видео

Печатать
Просмотров: 139
Авторы музыки: Paul Westerberg

Band: The Replacements
Song: Answering Machine
Album: Let It Be
Year: 1984

Intro
						               X4
e||----------------------------------||
B||------5-----4----------------4----||
G||*-------4------4-------------4-4-*||
D||*---4------------4----6-4----4---*||
A||--2--------2--------2-----2--2----||
E||----------------------------------||

Verse
e|---------------------2-2----2---2---2--|
B|-5—-4-5—-4-5—-4-5—-4-2-2----2---2---2--|
G|-2—-2-2—-2-2—-2-2—-2-3-3----3---3---3--|
D|-2—-2-2—-2-2—-2-2—-2-4-4----4---4---4--|
A|-0—-0-0—-0-0—-0-0—-0-4-4----4---4---4--|
E|---------------------2-2----2---2---2—-|

e|-----------------------------------------------|
B|-5—-4-2—-5—-4-5-4------------------------------|
G|-2—-2-2—-2—-2-2-2—-11--11-11-11-11-11-13-----8-|
D|-2—-2-2—-2—-2-2-2—-9---9--9--9--9--9—-9---11-x-|
A|-0—-0-0—-0—-0-0-0—-7---7--7--7--7--7—-7---9—-9-|
E|------------------------------------------7—-7-|

e|---------------------2-2----2---2---2--|
B|-5—-4-5—-4-5—-4-5—-4-2-2----2---2---2--|
G|-2—-2-2—-2-2—-2-2—-2-3-3----3---3---3--|
D|-2—-2-2—-2-2—-2-2—-2-4-4----4---4---4--|
A|-0—-0-0—-0-0—-0-0—-0-4-4----4---4---4--|
E|---------------------2-2----2---2---2—-|

Chorus
e||----------------------------------|
B||--5---5-4-------------------------|
G||*-6---6-6-6-8—-13-13\11\9-9/11-11-|
D||*-6---6-6-6-6—-11-11\9-\7-7/9—-9--|
A||--4---4-4-4-4-----0—-0—-0-0-0—-0--|
E||----------------------------------|

					       X2
e|-------------------------------||
B|-------------------------------||
G|—-11--11-11-11-11-11-13-----8-*||
D|—-9---9--9--9--9--9—-9---11-x-*||
A|—-7---7--7--7--7--7—-7---9—-9--||
E|-------------------------7—-7--||

Leave a comment if you know how to correctly play the intro. 

Notation

\		slide down
/		slide up
x		mute
Добавлено: 05.03.2012
Другие материалы по этой песне:
  • Аккорды и текст

Страница создана 05.03.2012
http://primanota.ru/replacements/answering-machine-chords.htm
Привет, Гость.
Предлагаем пройти революционный курс по гитаре.
Подарок от PrimaNota.Ru, забирай!