PrimaNota.ru - самый крупный в мире бесплатный архив песенных текстов, аккордов, табулатур и нот


Repetitor - U Pravom Trenutku - таба, видео

Регистрация Запомнить меня
Войти через:  Facebook Google Twitter Vk Yandex Mail.ru

Repetitor - U Pravom Trenutku - таба, видео

Печатать
Просмотров: 252
Tema (koja se vrti kroz celu pesmu i na gitari i na bas gitari)

d#|---------------------------------------------|
A#|---------------------------------------------|
F#|---------------------------------------------|
C#|---------------------------------------------|
G#|--1--------3--3/5--1--------3--3/5--1--------|
D#|-----3--3-------------3--3-------------3--3--|


U pravom trenutku neko podigao je glavu
To nisu stvari koje mogu da se dogode slucajno
U ocima ljudi se vidi sta ce biti
Nije narocita hrabrost meni to uliva strah
C#5
Bolje je da ne mislis na to
U protivnom mozes da poludis
Jer jednom kada padnes zatvorenih ociju u mrak
Gospodin u dnu ukrstio je ruke
Odlicno sam video
Dobrodosli na okean
Dovoljno je dubok da potopi tvoj san

Trazim svoju verziju istine
Uvek spreman na opasnost budnim okom motrim svet
Oci pune prezira za sve sto je moje
Kako samo zasijaju kad se pomene on
     C#5
Reci mesam sa asfaltom
Ne razlikujem to dvoje
Sive tvrde boje oklopile su svest

Nema vise svesti
Sive tvrde boje
Oklopile su sve
I sad se jasno vidi

Prelaz
d#|-----------------------------------|
A#|-----------------------------------|
F#|-----------------------------------|
C#|--7--5-----------------------------|
G#|--------6--5--5--5--5--5--5--5--5--|
D#|-----------------------------------|

Kraj
D#|-------------|
A#|-------------|
F#|-------------|
C#|-------------|
G#|--5--1/3-----|
D#|----------3--|

Transkripcija: Stevan Golubovic
Добавлено: 25.09.2013
Вам также может быть интересно:
Другие материалы по этой песне:
  • Аккорды и текст

Страница создана 25.09.2013
http://primanota.ru/repetitor/u-pravom-trenutku-chords.htm
Привет, Гость.
Предлагаем пройти революционный курс по гитаре.
Подарок от PrimaNota.Ru, забирай!