PrimaNota.ru - самый крупный в мире бесплатный архив песенных текстов, аккордов, табулатур и нот


Repetitor - Ja - таба, видео

Регистрация Запомнить меня
Войти через:  Facebook Google Twitter Vk Yandex Mail.ru

Repetitor - Ja - таба, видео

Печатать
Просмотров: 118
Tab to song Ja by Repetitor (http://repetitor.bandcamp.com/)
This is live version of the song (or something similar) :)


Bass riff:
G|--------------------------------------------------|
D|---15---15-15-------------------------------------|
A|--------------16---16-16-15---15-15---------------|
E|------------------------------------16-16-16-16---|

Guitar(enter after 2nd time bass plays):

intro:

e|-------------------------------------|
B|-------------------------------------|
G|-------------------------------------|
D|---3---------------4-3---4---3-4-----|
A|-------------------------------------|
E|-------------------------------------| x3

e|-------------------------------------|
B|-------------------------------------|
G|-------------------------------------|
D|---3---------------4-3---------------|
A|-----------------------4-3-----------|
E|---------------------------4-3-1-----|

riff 1:

       F5      C#5    C5      G#5
e|-------------------------------------|
B|-------------------------------------|
G|-----------6---6-6-5---5-------------|
D|---3---3-3-6---6-6-5---5-6---6-6-6---|
A|---3---3-3-4---4-4-3---3-6---6-6-6---|
E|---1---1-1---------------4---4-4-4---| x4

[no guitar]
Ja, ja sam visok kao kuca
Ja nemam mnogo stvari
Ja nosim sve sa sobom

riff 2:

               F5
e|-----------------------------|
B|-----------------------------|
G|---10-10-10-10-10-10-10-10---|
D|---10-10-10-10-10 10-10-10---|
A|---8--8--8--8--8--8--8--8----|
E|-----------------------------|

AAAAAAAAAAAAAAAAAAAAAAAAAAAAAA!!!

[no guitar]
Ja nemam mnogo prijatelja

riff 3:

e|----------------------------------------|
B|----------------------------------------|
G|---10-----------------------------------|
D|---10-------11-------10-------6---------|
A|---8--------11-------10-------6---------|
E|------------9--------8--------4---------|  x2

Ne treba mi niko da mi kaze da me voli x2

[riff 1]

[no guitar]
Ja, cesto pricam sam sa sobom
Moja glava je stovariste glupih stvari
Moja glava...

[riff 2]
AAAAAAAAAAAAAAAAAAAAAAAAAAAAAA!!!

Ja nemam mnogo prijatelja

[riff 3]
Ne treba mi niko da mi kaze da me voli
Ne treba mi niko, niko, niko...

[riff 1]

outro:

(actually played on G-string, no pun intended)


e|---2---1-----------------------------|
B|-------------------------------------|
G|-------------------------------------|
D|-------------------------------------|
A|-------------------------------------|
E|-------------------------------------|  x2

e|---2---1-----------2---1-------------|
B|-------------------------------------|
G|-------------------------------------|
D|-------------------------------------|
A|-------------------------------------|
E|-------------------------------------|  x2


e|---2---1---2---1---2---1---2---1-----|
B|-------------------------------------|
G|-------------------------------------|
D|-------------------------------------|
A|-------------------------------------|
E|-------------------------------------|  x2
Добавлено: 29.07.2013
Другие материалы по этой песне:
  • Аккорды и текст

Страница создана 29.07.2013
http://primanota.ru/repetitor/ja-chords.htm
Привет, Гость.
Предлагаем пройти революционный курс по гитаре.
Подарок от PrimaNota.Ru, забирай!