PrimaNota.ru - самый крупный в мире бесплатный архив песенных текстов, аккордов, табулатур и нот


Renegades - Renegades - таба, видео

Регистрация Запомнить меня
Войти через:  Facebook Google Twitter Vk Yandex Mail.ru

Renegades - Renegades - таба, видео

Печатать
Просмотров: 300
Уроки эстрадного вокала в Санкт-Петербурге
-------------------------------------------------------------------------------
                             RENEGADES - Renegades
-------------------------------------------------------------------------------
Tabbed by: CraigHolroyd
Email: cragsterman@msn.com

Tuning: Standard, No capo

Intro:
e|-2-----------5-------7----2-----------5--------|
B|-2------7----5-------7----2------7----5--------|
G|-2------7----6-------7----2------7----6--------| x2
D|-4------7----7-------9----4------7----7-(hold)-|
A|-4------5----7-------9----4------5----7--------|
E|-2-----------5-------7----2-----------5--------|

Verse:
(Listen to song for rhythm)
e|--------------------------------------------------------------|
B|--------------------------------------------------------------|
G|---------7-----------------------------7--------------9-------| x2
D|-4-------7-(x4)-7-------9------4-------7-(x4)-7-------9-(x4)--|
A|-4-(x12)-5------7-(x12)-9-(x4)-4-(x12)-5------7-(x12)-7-------|
E|-2--------------5-------7------4--------------5---------------|


Pre-Chorus:
e|------------------------------------------------------------------------------------|
B|------------------------------------------------------------------------------------|
G|------------------------------------------------------------------------------------|
D|-9-9-9-9-9-9--11111111-12-12-12-12-12-12-12121212-4-4-4-4-4-4-4444-2-2-2-2-2-2-2222-|
A|-9-9-9-9-9-9--9-9-9-9--12-12-12-12-12-12-12121212-4-4-4-4-4-4-4444-2-2-2-2-2-2-2222-|
E|-7-7-7-7-7-7--9-9-9-9--10-10-10-10-10-10-10101010-2-2-2-2-2-2-2222-0-0-0-0-0-0-0000-|
(Those are 11s not 1s)

e|----------------------------------------|
B|----------------------------------------|
G|-----------------------7-7-7-7-7-7-7777-|
D|-9-9-9-9-9-9--11111111-7-7-7-7-7-7-7777-|
A|-9-9-9-9-9-9--9-9-9-9--5-5-5-5-5-5-5555-|
E|-7-7-7-7-7-7--9-9-9-9-------------------|

Chorus:
e|---------------------------------------------------|
B|---------------------------------------------------|
G|-7---------------------------7-------------4-------| x2
D|-7-(x4)-4------7------9------7-(x4)-4------4-(x8)--|
A|-5------4-(x8)-7-(x4)-9-(x4)-5------4-(x8)-2-------|
E|--------2------5------7-------------2--------------|

Break:
e|--------------------------|
B|--------------------------|
G|---------7----------------|
D|-4-------7-(x4)-7-------9-|
A|-4-(x12)-5------7-(x12)-9-|
E|-2--------------5-------7-|

Verse
Pre-Chorus
Chorus

Bridge:
e|--------------------------------------|
B|--------------------------------------|
G|-7-7-7-77-4-4-4-44-6-6-6-66-9-9-9-99--| x2
D|-7-7-7-77-4-4-4-44-6-6-6-66-9-9-9-99--|
A|-5-5-5-55-2-2-2-22-4-4-4-44-7-7-7-77--|
E|--------------------------------------|

e|-------------------|
B|-------------------|
G|-7-7-7-77-4-4-4-44-|
D|-7-7-7-77-4-4-4-44-|
A|-5-5-5-55-2-2-2-22-|
E|-------------------|

Intro again

Break:
e|---------------------------|
B|---------------------------|
G|---------------------------|
D|-x-xx-xx-xx-xx-xx-xxxxxxx--|
A|-x-xx-xx-xx-xx-xx-xxxxxxx--|
E|-x-xx-xx-xx-xx-xx-xxxxxxx--|

Chorus x2

End on:
e|-----|
B|-----|
G|-----|
D|--4--|
A|--4--|
E|--2--|

Enjoy!


************************************

| /   slide up
| \   slide down
| h   hammer-on
| p   pull-off
| ~   vibrato
| +   harmonic
| x   Mute note
| b   Bend
| pb  Pre-bend
| br  Bend release
| pbr Pre-bend release
| brb Bend release bend

************************************

http://www.feederweb.com/
Добавлено: 29.05.2012
Другие материалы по этой песне:
  • Аккорды и текст

Страница создана 29.05.2012
http://primanota.ru/renegades/renegades-chords.htm
Привет, Гость.
Предлагаем пройти революционный курс по гитаре.
Подарок от PrimaNota.Ru, забирай!