PrimaNota.ru - самый крупный в мире бесплатный архив песенных текстов, аккордов, табулатур и нот


Rene Aubry - La Grande Cascade - таба, видео

Регистрация Запомнить меня
Войти через:  Facebook Google Twitter Vk Yandex Mail.ru

Rene Aubry - La Grande Cascade - таба, видео

Печатать
Просмотров: 377
Уроки эстрадного вокала в Санкт-Петербурге
Авторы музыки: René Aubry

(/) Slide Up  (\) Slide Down  (h) Hammer On  (p) Pull Off  (b) Bend (r) Release (v) Vibrato

Stave 1:

The pattern is always as follows:
Use thumb, index and middle finger.
E|--------------------------------------------------------------------------------------------------|
B|--------------------------------------------------------------------------------------------------|
G|--------------------------------------------------------0-----------0-----------0-----------0-----|
D|--------0-----------0-----------0-----------0--------5-----5-----5-----5-----5-----5-----5-----5--|
A|-----5-----5-----5-----5-----5-----5-----5-----5--3-----------3-----------3-----------3-----------|
E|--3-----------3------------3-----------3----------------------------------------------------------|

All sequences are played 4x.
I only wrote the pattern once, so you need to repeat each sequence 4x.

I hope my notation understandable.
The original is played with the capo on the 3rd fret.

Part A
E|--------------|--------------|--------------|--------------|
B|--------------|--------------|--------------|--------------|
G|--------------|--------0-----|--------0-----|--------------|  2x
D|--------0-----|-----5-----5--|-----5-----5--|--------0-----|
A|-----5-----5--|--3-----------|--6-----------|-----5-----3--|
E|--3-----------|--------------|--------------|--3-----------|

Part B
E|--------------|--------------|--------------|--------------|
B|--------------|--------------|--------------|--------------|  2x
G|--------------|--------0-----|--------------|--------------|
D|--------0-----|-----5-----5--|--------0-----|--------0-----|
A|-----5-----3--|--6-----------|-----5-----5--|-----3-----3--|
E|--3-----------|--------------|--6-----------|--5-----------|

Part C
E|--------------|--------------|--------------|--------------|
B|--------------|--------------|--------------|--------------| 2x
G|--------------|--------0-----|--------0-----|--------0-----|
D|--------0-----|-----8-----8--|-----8-----8--|-----7-----7--|
A|-----5-----5--|--10----------|--6-----------|--8-----------|
E|--3-----------|--------------|--------------|--------------|


 -> Repeat Part B 2x

Part D

E|--------------|--------------|--------------|--------------|
B|--------------|--------------|--------------|--------------| 2x
G|--------------|--------------|--------0-----|--------0-----|
D|--------0-----|--------0-----|-----1-----1--|-----0-----0--|
A|-----1-----1--|-----0-----0--|--3-----------|--1-----------|
E|--3-----------|--1-----------|--------------|--------------|

Part E
E|--------------|--------------|--------------|--------------|--------------|
B|--------------|--------------|--------------|--------------|--------------|
G|--------0-----|--------0-----|--------0-----|--------0-----|--------0-----|
D|-----3-----3--|-----3-----0--|-----1-----1--|-----8-----8--|-----8-----8--| -> Repeat Part C
A|--1-----------|--0-----------|--3-----------|--6-----------|--5-----------|
E|--------------|--------------|--------------|--------------|--------------|

E|--------------|
B|--------------|
G|--------------| -> Repeat Part B 2x
D|--------0-----|
A|-----5-----5--|
E|--3-----------|

Part F
E|--------------|--------------|--------------|--------------|
B|--------------|--------------|--------------|--------------| 2x
G|--------0-----|--------0-----|-------0------|--------0-----|
D|-----12---12--|-----12---12--|----10---10---|-----8-----8--|
A|--10----------|--8-----------|--6-----------|--5-----------|
E|--------------|--------------|--------------|--------------|

Part G

E|--------------|--------------|--------------|--------------|--------------|
B|--------------|--------------|--------------|--------------|--------------|
G|--------0-----|--------0-----|--------0-----|--------0-----|--------0-----|
D|-----8-----8--|-----8-----8--|-----8-----8--|-----0-----0--|-----0-----0--|
A|--5-----------|--4-----------|--------------|--------------|--------------|
E|--------------|--------------|--9-----------|--6-----------|--6-----------|


From now on there is nothing new:

-> Repeat Part B 2x
-> Repeat Part D 2x
-> Repeat Part E 2x
-> Repeat Part D until finish
Добавлено: 12.08.2015
Другие материалы по этой песне:
  • Аккорды и текст

Страница создана 12.08.2015
http://primanota.ru/rene-aubry/la-grande-cascade-chords.htm
Привет, Гость.
Предлагаем пройти революционный курс по гитаре.
Подарок от PrimaNota.Ru, забирай!