PrimaNota.ru - самый крупный в мире бесплатный архив песенных текстов, аккордов, табулатур и нот


Rend Collective Experiment - Your Royal Blood - таба, видео

Регистрация Запомнить меня
Войти через:  Facebook Google Twitter Vk Yandex Mail.ru

Rend Collective Experiment - Your Royal Blood - таба, видео

Печатать
Просмотров: 49
-------------------------------------------------------------------------------
                             Your royal blood - Rend collective
-------------------------------------------------------------------------------
Tabbed by: andrewgleave


Tuning: Standard
        Am                F           C
e|---------------------------------------------------------------------------|
B|----------1-------------1-----------1--------------------------------------|
G|--------2---------------2p0---------0--------------------------------------|
D|----0h2-----------------3-----------2--------------------------------------|
A|------------------------3-----------3--------------------------------------|
E|---------------------------------------------------------------------------|
      Am
e|--------------------------------------0------------------------------------|
B|----------1--------------1------------1------------------------------------|
G|--------2----------------2p0----------0------------------------------------|
D|----0h2------------------3------------2------------------------------------|
A|-------------------------3-------------------------------------------------|
E|---------------------------------------------------------------------------|

Lovely Intro.
This rif is played through the whole song although is changed slightly
The second time the rif is played the C is played on the higher strings, this is intentional. 
The chords are correct however if the full chord is played it loses effect and you cannot hear the pull off's
as clearly
Enjoy!

************************************
| h   hammer-on
| p   pull-off
************************************
Добавлено: 20.05.2016
Другие материалы по этой песне:
  • Аккорды и текст

Страница создана 20.05.2016
http://primanota.ru/rend-collective-experiment/your-royal-blood-chords.htm
Привет, Гость.
Предлагаем пройти революционный курс по гитаре.
Подарок от PrimaNota.Ru, забирай!