PrimaNota.ru - самый крупный в мире бесплатный архив песенных текстов, аккордов, табулатур и нот


Renaud - Viens Chez Moi Jhabite Chez Une Copine - таба, видео

Регистрация Запомнить меня
Войти через:  Facebook Google Twitter Vk Yandex Mail.ru

Renaud - Viens Chez Moi Jhabite Chez Une Copine - таба, видео

Печатать
Просмотров: 156
Renaud - Viens chez moi j'habite chez une copine   

|-----7-5---------------5-7-8-7-5------|
|---8----8-5-8-5-5-7-8-----------------|
|--7-----------------------------------|
|--------------------------------------|
|--------------------------------------|
|--------------------------------------|

|-----7-5-----------8-7-5-7-8-7-5------|
|---8----8-5-8-5-5-------8-------------|
|--7-----------------------------------|
|--------------------------------------|
|--------------------------------------|
|--------------------------------------| 


J'ai l' [G] coeur comme une éponge
Spécial [Em] pour fille en pleurs
Heu'[Am]reusment pa'c'que ma tronche
C'est pas [D] vraiment une fleur
J'em[G]balle tout c' qui s' présente
Les cou[Em]sines les belles-soeurs
J'ai l'[Am]démon du bas ventre
Mon mé[D]tier c'est dragueur

Dès que j'[C]rencontre une frangine
J'lui dis : [G]salut toi ça va
[F#] Viens chez moi j'ha[B]bite chez une copine
[G] Sur les bords [Am] au milieu c'est [D] vrai qu'je crains un peu
        
|-----7-5---------------5-7-8-7-5------|
|---8----8-5-8-5-5-7-8-----------------|
|--7-----------------------------------|
|--------------------------------------|
|--------------------------------------|
|--------------------------------------|


|-----7-5-----------8-7-5-7-8-7-5------|
|---8----8-5-8-5-5-------8-------------|
|--7-----------------------------------|
|--------------------------------------|
|--------------------------------------|
|--------------------------------------|
 

Je glande un peu partout
Avec mon sac de couchage
Je suis dans tous les coups foireux
Tous les naufrages
J'ai des potes qu'ont d'l'argent
Ben y travaillent c'est normal
Moi mon métier c'est feignant
He mec t'as pas cent balles
J'ai des plans des combines
Pour vivre comme un pacha
Hé viens chez moi j'habite chez une copine
Sur les bords au milieu c'est vrai qu'je crains un peu

J'ai même été étudiant
Chômeur, baby-sitter
Quand j'pense que mes parents
Voulaient qu'je sois docteur
Parfois quand j'ai du blé
Je flambe comme un malade
L' pognon j'l'ai pas gagné
Mais mon métier c'est minable
Ouah super la rouquine
Hé salut toi ça va
Viens chez moi j'habite chez une copine
Sur les bords au milieu c'est vrai qu'je crains un peu
He viens chez moi j'habite chez une copine
J'ai mon mat'las dans la cuisine
Alors tu viens si tu veux tranquille
Allez viens
Viens chez moi j'habite chez une copine
Allez viens la frangine
Allez viens
Non ah bon d'accord

Source: ABC-tabs
Добавлено: 11.07.2013
Другие материалы по этой песне:

Страница создана 18.07.2012
http://primanota.ru/renaud/viens-chez-moi-jhabite-chez-une-copine-chords.htm
Привет, Гость.
Предлагаем пройти революционный курс по гитаре.
Подарок от PrimaNota.Ru, забирай!