PrimaNota.ru - самый крупный в мире бесплатный архив песенных текстов, аккордов, табулатур и нот


Remler, Emily - East To Wes - таба, видео

Регистрация Запомнить меня
Войти через:  Facebook Google Twitter Vk Yandex Mail.ru

Remler, Emily - East To Wes - таба, видео

Печатать
Просмотров: 88
-------------------------------------------------------------------------------
                             East to Wes - Emily Remler
-------------------------------------------------------------------------------
Tabbed by: Keegs

Tuning: Standard

All octave parts use thumb 

A Section

e|-------------------10---------8-----------------------------------------------|
B|--------8-----11-------11--8------10--------8/11-10---------------------------|
G|----7--------------7----------5------10--8-----------7------------------------|
D|--------5-----8--------8---5------7---------5/7--6----------------------------|
A|----5--------------------------------8---6-----------5-------------------------|
E|------------------------------------------------------------------------------|

e|---------------10/9-----------8/7--------------------------13-----------------|
B|------8---11---------11--8----------10-----------8/11--10---------------------|
G|--7-------------7/6-----------5/4-------10---8-------------10-----------------|
D|------5---8----------8---5----------7------------5/7---6----------------------|
A|--5-------------------------------------8----6--------------------------------|
E|------------------------------------------------------------------------------|

Bridge 

e|-11----10----10---10--10---8--6---8--6---3---------------------------------|
B|-------11----10---9---8---------8-7--6---3---------------------------------|
G|-------10----9----8---7-----------6--5---3---------------------------------|
D|-------9-----8----7---6-----------5--4---2---------------------------------|
A|---------------------------------------------------------------------------|
E|---------------------------------------------------------------------------|

e|-11----10----10---10--10---8--6---8--8--8--8---4---------------------------|
B|-------11----10---9---8---------8-7--7--7--7---4---------------------------|
G|-------10----9----8---7-----------6--6--6--6---5---------------------------|
D|-------9-----8----7---6-----------5--5--5--5---4---------------------------|
A|---------------------------------------------------------------------------|
E|---------------------------------------------------------------------------|

e|-------------------10---------8-----------------------------------------------|
B|--------8-----11-------11--8------10--------8/11-10---------------------------|
G|----7--------------7----------5------10--8-----------7------------------------|
D|--------5-----8--------8---5------7---------5/7--6----------------------------|
A|----5--------------------------------8---6-----------5------------------------|
E|------------------------------------------------------------------------------| 

e|------------10---8-------------------9-8-----9------8---10--------------------|
B|---------------------10--------6--8-------11----8-----------10----------------|
G|----7--8----7----5------10--7--------6-5-----6------5---7---------------------|
D|---------------------7---------3--5-------8-----5----------7------------------|
A|----5--6----------------8---5-------------------------------------------------|
E|------------------------------------------------------------------------------|

e|------6---10---8---6/10--6--------6--10---8---6/10--6-----------------------||
B|---8--6---10---8---6/10--6--7--7--6--10---8---6/10--6---8------------------o||
G|---7------------------------8--8------------------------8-------------------||
D|---------------------------------------------------------------------------o||
A|----------------------------------------------------------------------------||
E|----------------------------------------------------------------------------||
 
Lead into Solo 

e|--------------------------------5--6-----------------------------------------|
B|--------------------5---7---8-----------8------------------------------------|
G|-------------5--7---------------------------6h7---5--------------------------|
D|----5--7--8------------------------------------------------------------------|
A|-----------------------------------------------------------------------------|
E|-----------------------------------------------------------------------------|



************************************

| /   slide up
| \   slide down
| h   hammer-on


************************************
Добавлено: 12.08.2015
Другие материалы по этой песне:
  • Аккорды и текст

Страница создана 12.08.2015
http://primanota.ru/remler-emily/east-to-wes-chords.htm
Привет, Гость.
Предлагаем пройти революционный курс по гитаре.
Подарок от PrimaNota.Ru, забирай!