PrimaNota.ru - самый крупный в мире бесплатный архив песенных текстов, аккордов, табулатур и нот


Remembering Never - Feathers In Heaven - текст песни, таба, видео

Регистрация Запомнить меня
Войти через:  Facebook Google Twitter Vk Yandex Mail.ru

Remembering Never - Feathers In Heaven - текст песни, таба, видео

Печатать
Просмотров: 59
     C|-------------------------------------------------|
GTR  G|-8p7-7-7-7-8p7-7-7-7-8p7-8p7-7-7-7-8p7-7-7-7-8p7-|
 1  Eb|-9---9-9-9-9---9-9-9-9---9---9-9-9-9---9-9-9-9---|
    Bb|-9---9-9-9-9---9-9-9-9---------------------------| 
     F|-------------------------------------------------|
    Bb|-------------------------------------------------|

     C|---------------------------------------|
     G|---------------------------------------|
GTR Eb|-6-6-666-7-7-7-7777-6-6-666-7-7-7-7777-|
1+2 Bb|-5-5-555-5-5-5-5555-5-5-555-5-5-5-5555-|
     F|-5-5-555-5-5-5-5555-5-5-555-5-5-5-5555-|
    Bb|-5-5-555-5-5-5-5555-5-5-555-5-5-5-5555-|

     C|---------------------------------------------------------------------------------------|
GTR  G|-8p7-7-7-7-8p7-7-7-7-8p7-8p7-7-7-7-8p7-7-7-7-8p7---------------------------------------|
1+2 Eb|-9---9-9-9-9---9-9-9-9---9---9-9-9-9---9-9-9-9---6-6-666-7-7-7-7777-6-6-666-7-7-7-7777-|
    Bb|-9---9-9-9-9---9-9-9-9---9---9-9-9-9---9-9-9-9---5-5-555-5-5-5-5555-5-5-555-5-5-5-5555-| x2
     F|-------------------------------------------------5-5-555-5-5-5-5555-5-5-555-5-5-5-5555-|
    Bb|-------------------------------------------------5-5-555-5-5-5-5555-5-5-555-5-5-5-5555-|

     C|-------------------------------------------------------------------------|
GTR  G|-8p7-7-7-7-8p7-7-7-7-8p7-8p7-7-7-7-8p7-7-7-7-8p7-------------------------|
1+2 Eb|-9---9-9-9-9---9-9-9-9---9---9-9-9-9---9-9-9-9---6-6-7-7-7-7-------------|
    Bb|-9---9-9-9-9---9-9-9-9---------------------------5-5-5-5-5-5-5-5-5-5-5-5-| 
     F|-------------------------------------------------5-5-5-5-5-5-3-3-3-3-3-3-|
    Bb|-------------------------------------------------5-5-5-5-5-5-3-3-3-3-3-3-|

     C|-------------------------------------|
GTR  G|-6--5-5-6--5-5-6-5-6--5-5-6--5-5-6-5-|
 1  Eb|-7--7-7-7--7-7-7-7-7--7-7-7--7-7-7-7-|
    Bb|-7--7-7-7--7-7-7-7-7--7-7-7--7-7-7-7-| x2
     F|-------------------------------------|
    Bb|-------------------------------------|

     C|-----------------5---------------|
     G|-----------------5---------------|
GTR Eb|-----------------7---------------|
 2  Bb|-----------------7---------------| x2
     F|-----------------5---------------|
    Bb|-----------------5---------------|

     C|-5-555-5-5555-5-55------------------------------------------------------------|
     G|-5-555-5-5555-5-55------------------------------------------------------------|
GTR Eb|-7-777-7-7777-7-77-12-121212-12-12121212-12-1212-12-121212-12-12121212-121212-|
 1  Bb|-7-777-7-7777-7-77-10-101010-10-10101010-10-1010-12-121212-12-12121212-121212-| x3
     F|-5-555-5-5555-5-55-8--8-8-8--8--8-8-8-8--8--8-8--10-101010-10-10101010-101010-|
    Bb|-5-555-5-5555-5-55-8--8-8-8--8--8-8-8-8--8--8-8--10-101010-10-10101010-101010-|

     C|-------------------------------------------------------------------------------------|
     G|-6--5-5-6--5-5-6-5-------------------------------6--5-5-6--5-5-6-5-6--5-5-6--5-5-6-5-|
GTR Eb|-7--7-7-7--7-7-7-7-12-121212-12-12121212-12-1212-7--7-7-7--7-7-7-7-7--7-7-7--7-7-7-7-|
 2  Bb|-7--7-7-7--7-7-7-7-10-101010-10-10101010-10-1010-7--7-7-7--7-7-7-7-7--7-7-7--7-7-7-7-| x3
     F|-------------------8--8-8-8--8--8-8-8-8--8--8-7--------------------------------------|
    Bb|-------------------8--8-8-8--8--8-8-8-8--8--8-7--------------------------------------|

     C|-5-555-5-5555-5-55-------------------------------------------------------------------|
     G|-5-555-5-5555-5-55-------------------------------------------------------------------|
GTR Eb|-7-777-7-7777-7-77-12-121212-12-12121212-12-1212-7-777-7-7777-7-77-7-777-7-7777-7-77-|
 1  Bb|-7-777-7-7777-7-77-10-101010-10-10101010-10-1010-7-777-7-7777-7-77-7-777-7-7777-7-77-| x1
     F|-5-555-5-5555-5-55-8--8-8-8--8--8-8-8-8--8--8-8--5-555-5-5555-5-55-5-555-5-5555-5-55-|
    Bb|-5-555-5-5555-5-55-8--8-8-8--8--8-8-8-8--8--8-8--5-555-5-5555-5-55-5-555-5-5555-5-55-|

     C|-------------------------------------------------------------------------------------|
     G|-6--5-5-6--5-5-6-5-------------------------------6--5-5-6--5-5-6-5-6--5-5-6--5-5-6-5-|
GTR Eb|-7--7-7-7--7-7-7-7-12-121212-12-12121212-12-1212-7--7-7-7--7-7-7-7-7--7-7-7--7-7-7-7-|
 2  Bb|-7--7-7-7--7-7-7-7-10-101010-10-10101010-10-1010-7--7-7-7--7-7-7-7-7--7-7-7--7-7-7-7-| x1
     F|-------------------8--8-8-8--8--8-8-8-8--8--8-8--------------------------------------|
    Bb|-------------------8--8-8-8--8--8-8-8-8--8--8-8--------------------------------------|

     C|-----------------------------------------------------------------------------------------------------|
GTR  G|-----------------------------------------------------------------------------------------------------|
 1  Eb|-12-12121212-12-121212-12-1212-10-10101010-10-10101010-10-1010-9-9999-9-9999-9-99-9-9999-9-9999-9-99-|
    Bb|-12-12121212-12-121212-12-1212-10-10101010-10-10101010-10-1010-9-9999-9-9999-9-99-9-9999-9-9999-9-99-|
     F|-10-10101010-10-101010-10-1010-8--8-8-8-8--8--8-8-8-8--8--8-8--7-7777-7-7777-7-77-7-7777-7-7777-7-77-|
    Bb|-10-10101010-10-101010-10-1010-8--8-8-8-8--8--8-8-8-8--8--8-8--7-7777-7-7777-7-77-7-7777-7-7777-7-77-|

     C|-------------------------------------------------------------------|
     G|-15-------15-------13-1313-13-1313-12-1212-12-1212-12-1212-12-1212-|
GTR Eb|----17-17----17-17-15-1515-15-1515-14-1414-14-1414-14-1414-14-1414-| 1,3
 2  Bb|-------------------------------------------------------------------|
     F|-------------------------------------------------------------------|
    Bb|-------------------------------------------------------------------|

     C|-----------------------------------------------------------------------------------------------------|
GTR  G|-----------------------------------------------------------------------------------------------------|
 1  Eb|-12-12121212-12-121212-12-1212-10-10101010-10-10101010-10-1010-7-7777-7-7777-7-77-7-7777-7-7777-7-77-|
    Bb|-12-12121212-12-121212-12-1212-10-10101010-10-10101010-10-1010-7-7777-7-7777-7-77-7-7777-7-7777-7-77-|
     F|-10-10101010-10-101010-10-1010-8--8-8-8-8--8--8-8-8-8--8--8-8--5-5555-5-5555-5-55-5-5555-5-5555-5-55-|
    Bb|-10-10101010-10-101010-10-1010-8--8-8-8-8--8--8-8-8-8--8--8-8--5-5555-5-5555-5-55-5-5555-5-5555-5-55-|

     C|----------------------------------------------------------------------|
     G|-15-------15-------13-1313-13-1313-15-1515-15-1515-13/15-1515-15-1515-|
GTR Eb|----17-17----17-17-15-1515-15-1515-14-1414-14-1414-12/14-1414-14-1414-|
 2  Bb|----------------------------------------------------------------------| 2,4
     F|----------------------------------------------------------------------|
    Bb|----------------------------------------------------------------------|

WHEN LOVE IS MURDER

     C|--------------17----|
     G|-----------------21-|
GTR Eb|--------------------|
1+2 Bb|-2--1--3------------| x16
     F|-2--1--3--0-0-------|
    Bb|-2--1--3--0-0-------|
                 P M

     C|---------14-14-14-14-14-14-14-14-14-14-14-14-|
     G|---------18-18-18-18-18-18-18-18-18-18-18-18-|
GTR Eb|---------------------------------------------|
1+2 Bb|-2--1--3-------------------------------------|
     F|-2--1--3-------------------------------------|
    Bb|-2--1--3-------------------------------------|

     C|---------------------------------------------------------|
GTR  G|---------------------------------------------------------|
 1  Eb|-9-9999-9-9999-9-9999-7-7777-9-9999-7-7777-6-6666-7-7777-|
    Bb|---------------------------------------------------------| x4
     F|-7-7777-7-7777-7-7777-7-7777-7-7777-5-5555-4-4444-5-5555-|
    Bb|---------------------------------------------------------|

     C|-12-12121212-12-12121212-12-12121212-10-10101010-12-12121212-10-10101010-9-9999-10-10101010-|
     G|--------------------------------------------------------------------------------------------|
GTR Eb|-9--9-9-9-9--9--9-9-9-9--9--9-9-9-9--9--9-9-9-9--9--9-9-9-9--7--7-7-7-7--6-6666-7--7-7-7-7--|
 2  Bb|--------------------------------------------------------------------------------------------| x4
     F|--------------------------------------------------------------------------------------------|
    Bb|--------------------------------------------------------------------------------------------|

     C|----------------------------------------------------------------------|
     G|----------------------------------------------------------------------|
GTR Eb|-11111111111111111111111111111111111111111111111111111111111111111111-|
 1  Bb|----------------------------------------------------------------------|
     F|-9-9-9-9-9-9-9-9-9-9-9-9-9-9-9-9-9-9-9-9-9-9-9-9-9-9-9-9-9-9-9-9-9-9--|
    Bb|----------------------------------------------------------------------|

     C|-------------------------------------------------|
GTR  G|-8p7-7-7-7-8p7-7-7-7-8p7-8p7-7-7-7-8p7-7-7-7-8p7-|
 2  Eb|-9---9-9-9-9---9-9-9-9---9---9-9-9-9---9-9-9-9---|
    Bb|-9---9-9-9-9---9-9-9-9---------------------------| 
     F|-------------------------------------------------|
    Bb|-------------------------------------------------|

     C|---------------------------------------|
GTR  G|---------------------------------------|
1+2 Eb|-6-6-666-7-7-7-7777-6-6-666-7-7-7-7777-|
    Bb|-5-5-555-5-5-5-5555-5-5-555-5-5-5-5555-| 
     F|-5-5-555-5-5-5-5555-5-5-555-5-5-5-5555-|
    Bb|-5-5-555-5-5-5-5555-5-5-555-5-5-5-5555-|

     C|---------------------------------------------------------------------------------------|
GTR  G|-8p7-7-7-7-8p7-7-7-7-8p7-8p7-7-7-7-8p7-7-7-7-8p7---------------------------------------|
1+2 Eb|-9---9-9-9-9---9-9-9-9---9---9-9-9-9---9-9-9-9---6-6-666-7-7-7-7777-6-6-666-7-7-7-7777-|
    Bb|-9---9-9-9-9---9-9-9-9---9---9-9-9-9---9-9-9-9---5-5-555-5-5-5-5555-5-5-555-5-5-5-5555-| x2
     F|-------------------------------------------------5-5-555-5-5-5-5555-5-5-555-5-5-5-5555-|
    Bb|-------------------------------------------------5-5-555-5-5-5-5555-5-5-555-5-5-5-5555-|

     C|-------------------------------------------------------------------------|
GTR  G|-8p7-7-7-7-8p7-7-7-7-8p7-8p7-7-7-7-8p7-7-7-7-8p7-------------------------|
1+2 Eb|-9---9-9-9-9---9-9-9-9---9---9-9-9-9---9-9-9-9---6-6-7-7-7-7-------------|
    Bb|-9---9-9-9-9---9-9-9-9---------------------------5-5-5-5-5-5-5-5-5-5-5-5-| 
     F|-------------------------------------------------5-5-5-5-5-5-3-3-3-3-3-3-|
    Bb|-------------------------------------------------5-5-5-5-5-5-3-3-3-3-3-3-|

     C|---------------------------------|
     G|---------------------------------|
GTR Eb|---------------------------------|
1+2 Bb|-4--4--6-6-6-6-6-0--0--6-6-6-6-6-| x7
     F|-4--4--4-4-4-4-4-0--0--0-0-0-0-0-|
    Bb|-4--4--4-4-4-4-4-0--0--0-0-0-0-0-|

     C|-------------------|
     G|-------------------|
GTR Eb|-------------------|
1+2 Bb|-4--4--6-6-6-6-6-0-| 
     F|-4--4--4-4-4-4-4-0-|
    Bb|-4--4--4-4-4-4-4-0-|

     C|------------------0-0-0-0-|
     G|------------------4-4/5-2-|
GTR Eb|--------------------------|
1+2 Bb|---------6------0---------| x7
     F|-4-4-4-4-4--4-4-0---------|
    Bb|-4-4-4-4-4--4-4-0---------|
        P M P M    P M

     C|------------------|
     G|------------------|
GTR Eb|------------------|
1+2 Bb|---------6------0-| 
     F|-4-4-4-4-4--4-4-0-|
    Bb|-4-4-4-4-4--4-4-0-|
        P M P M    P M
Добавлено: 23.06.2016
Другие материалы по этой песне:
  • Аккорды и текст

Страница создана 25.08.2013
http://primanota.ru/remembering-never/feathers-in-heaven-chords.htm
Привет, Гость.
Предлагаем пройти революционный курс по гитаре.
Подарок от PrimaNota.Ru, забирай!