PrimaNota.ru - самый крупный в мире бесплатный архив песенных текстов, аккордов, табулатур и нот


Remains - Once Before - бас-таба, видео

Регистрация Запомнить меня
Войти через:  Facebook Google Twitter Vk Yandex Mail.ru

Remains - Once Before - бас-таба, видео

Печатать
Просмотров: 67
Once Before
The Remains
Written by Chip Damiani and Vern Miller; released as the B-side to "Diddy Wah 
Diddy" and on the album "The Remains".

Intro:
G|------- ------- ------- -------|------- ------- ------- -------|
D|-------------------------------|-------------------------------|
A|-------------------------------|-------------------------------|
E|-------------------------------|-------------------------------|



G|------- ------- ------- -------|------- ------- ------- -------|
D|-------------------------------|------------7------------------|
A|7------------------------------|5------------------------------|
E|------------7------------------|-------------------------------|



G|------- ------- ------- -------|------- ------- ------- -------|
D|-------------------------------|------------7------------------|
A|7------------------------------|5---------------------------5--|
E|------------7------------------|-------------------------------|



G|------- ------- ------- -------|------- ------- ------- -------|
D|-------------------------------|5-----------5---7-------7------|
A|7-----------7-------7---7---7--|-------------------------------|
E|-------------------------------|-------------------------------|


Verse:
G|------- ------- ------- -------|------- ------- ------- -------|
D|-------------------------------|5-----------5---7-------7------|
A|7-----------7---7-----------7--|-------------------------------|
E|-------------------------------|-------------------------------|
                              I   see you     off     a   -   gain,


G|------- ------- ------- -------|------- ------- ------- -------|
D|-------------------------------|5-----------5---7-------7------|
A|7-----------7---7-----------7--|-------------------------------|
E|-------------------------------|-------------------------------|
                              you've  a       brand   new     friend,
                                  got

G|------- ------- ------- -------|------- ------- ------- -------|
D|-------------------------------|5-----------5---7-------7------|
A|7-----------7---7---7-------7--|-------------------------------|
E|-------------------------------|-------------------------------|
                              He'll never     be      the     end,


G|------- ------- ------- -------|
D|-------------------------------|
A|7-----------7---7--------------|
E|------------------------7------|
                         'Cause

Refrain:
G|------- ------- ------- -------|------- ------- ------- -------|
D|-------------------------------|------------7------------------|
A|7------------------------------|5------------------------------|
E|------------7------------------|-------------------------------|
  once be  -  fore            you played this game,


G|------- ------- ------- -------|------- ------- ------- -------|
D|-------------------------------|------------7------------------|
A|7------------------------------|5-----------------------5------|
E|------------7------------------|-------------------------------|
  Just the    same,               you'll be   back        a - gain.


G|------- ------- ------- -------|------- ------- ------- -------|
D|-------------------------------|5-----------5---7-------7------|
A|7-----------7---7-------7---7--|-------------------------------|
E|-------------------------------|-------------------------------|


Verse:
G|------- ------- ------- -------|------- ------- ------- -------|
D|-------------------------------|5-----------5---7-------7------|
A|7-----------7---7-------7---7--|-------------------------------|
E|-------------------------------|-------------------------------|
                          You've  foolin'    'round   too     long,
                              been

G|------- ------- ------- -------|------- ------- ------- -------|
D|-------------------------------|5-----------5---7-------7------|
A|7-----------7---7-------7------|-------------------------------|
E|-------------------------------|-------------------------------|
                              I   know that   I'm     not     wrong,


G|------- ------- ------- -------|------- ------- ------- -------|
D|-------------------------------|5-----------5---7-------7------|
A|7-----------7---7-------7------|-------------------------------|
E|-------------------------------|-------------------------------|
                                  Once a  -   gain    you'll  come,


G|------- ------- ------- -------|
D|-------------------------------|
A|7-----------7---7--------------|
E|------------------------7------|
                         'Cause

Refrain:
G|------- ------- ------- -------|------- ------- ------- -------|
D|-------------------------------|------------7------------------|
A|7------------------------------|5------------------------------|
E|------------7------------------|-------------------------------|
  once be  -  fore            you played this game,


G|------- ------- ------- -------|------- ------- ------- -------|
D|-------------------------------|------------7------------------|
A|7------------------------------|5---------------------------5--|
E|------------7------------------|-------------------------------|
  Just the    same,               you'll be   back        a - gain.


G|------- ------- ------- -------|------- ------- ------- -------|
D|-------------------------------|5-----------7-------7---7------|
A|7-----------7---7-------7------|-------------------------------|
E|-------------------------------|-------------------------------|


Bridge:
G|------- ------- ------- -------|------- ------- ------- -------|
D|6-----------6---6--------------|7-----------7---7-------7------|
A|-------------------------------|-------------------------------|
E|-------------------------------|-------------------------------|
              You ne- ver         com  -  promise         with me,


G|------- ------- ------- -------|------- ------- ------- -------|
D|6-----------6---6-------6------|8-----------8---8-------8------|
A|-------------------------------|-------------------------------|
E|-------------------------------|-------------------------------|



G|------- ------- ------- -------|------- ------- ------- -------|
D|6-----------6---6-------6------|7-----------7---7-------7------|
A|-------------------------------|-------------------------------|
E|-------------------------------|-------------------------------|
              You make it     plain           for me  to      see


G|------- ------- ------- -------|------- ------- ------- -------|
D|-------------------------------|5-----------5---5---7---7---7--|
A|7-----------7---7-------7------|-------------------------------|
E|-------------------------------|-------------------------------|


Verse:
G|------- ------- ------- -------|------- ------- ------- -------|
D|-------------------------------|5-----------5---7-------7------|
A|7-----------7---7---7----------|-------------------------------|
E|-------------------------------|-------------------------------|
                          That    fooling     with    my      mind,
                              you're

G|------- ------- ------- -------|------- ------- ------- -------|
D|-------------------------------|5-----------5---7-------7------|
A|7-----------7---7-----------7--|-------------------------------|
E|-------------------------------|-------------------------------|
                              you'll always   be      un  -   kind,


G|------- ------- ------- -------|------- ------- ------- -------|
D|-------------------------------|5-----------5---7-------7------|
A|7-----------7---7-------7------|-------------------------------|
E|-------------------------------|-------------------------------|
                          And     blow it     eve  -  ry      time,
                              you'll

G|------- ------- ------- -------|
D|-------------------------------|
A|7-----------7---7--------------|
E|------------------------7------|
                         'Cause

Refrain:
G|------- ------- ------- -------|------- ------- ------- -------|
D|-------------------------------|------------7------------------|
A|7------------------------------|5------------------------------|
E|------------7------------------|-------------------------------|
  once be  -  fore            you played this game,


G|------- ------- ------- -------|------- ------- ------- -------|
D|-------------------------------|------------7------------------|
A|7------------------------------|5---------------------------5--|
E|------------7------------------|-------------------------------|
  Just the    same,               you'll be   back        a - gain.


G|------- ------- ------- -------|------- ------- ------- -------|
D|-------------------------------|5-----------5---7-------7------|
A|7-----------7---7-------7------|-------------------------------|
E|-------------------------------|-------------------------------|


Verse:
G|------- ------- ------- -------|------- ------- ------- -------|
D|-------------------------------|5-----------5---7-------7------|
A|7-----------7---7-------7---7--|-------------------------------|
E|-------------------------------|-------------------------------|
                      You see how lonely      life    can     be,


G|------- ------- ------- -------|------- ------- ------- -------|
D|-------------------------------|5-----------5---7-------7------|
A|7-----------7---7-----------7--|-------------------------------|
E|-------------------------------|-------------------------------|
                          since   ran a   -   way     from    me,
                              you

G|------- ------- ------- -------|------- ------- ------- -------|
D|-------------------------------|5-----------5---7-------7------|
A|7-----------7---7-----------7--|-------------------------------|
E|-------------------------------|-------------------------------|
                          You'll  running     back        to  me,
                              come

G|------- ------- ------- -------|
D|-------------------------------|
A|7-----------7---7--------------|
E|------------------------7------|
                         'Cause

Refrain:
G|------- ------- ------- -------|------- ------- ------- -------|
D|-------------------------------|------------7------------------|
A|7------------------------------|5------------------------------|
E|------------7------------------|-------------------------------|
  once be  -  fore            you played this game,


G|------- ------- ------- -------|------- ------- ------- -------|
D|-------------------------------|------------7------------------|
A|7------------------------------|5---------------------------5--|
E|------------7------------------|-------------------------------|
  Just the    same,               you'll be   back        a - gain,


G|------- ------- ------- -------|------- ------- ------- -------|
D|-------------------------------|5-----------5---5-/-7---7------|
A|7-----------7---7-------7---7--|-------------------------------|
E|-------------------------------|-------------------------------|
                                  you'll be   back        a - gain,

Outro:
G|------- ------- ------- -------|------- ------- ------- -------|
D|-------------------------------|5-----------5---7-------7------|
A|7-----------7---7-------7------|-------------------------------|
E|-------------------------------|-------------------------------|
                                  you'll be   back        a - gain,
repeat and fade out...

Please e-mail me for any corrections, or write a comment.
Добавлено: 16.09.2013
Другие материалы по этой песне:
  • Аккорды и текст

Страница создана 16.09.2013
http://primanota.ru/remains/once-before-chords.htm
Привет, Гость.
Предлагаем пройти революционный курс по гитаре.
Подарок от PrimaNota.Ru, забирай!