PrimaNota.ru - самый крупный в мире бесплатный архив песенных текстов, аккордов, табулатур и нот


Rem - Monster (ver 2) (album) - таба, видео

Регистрация Запомнить меня
Войти через:  Facebook Google Twitter Vk Yandex Mail.ru

Rem - Monster (ver 2) (album) - таба, видео

Печатать
Просмотров: 91
LYRICS AVAILABLE AT "R.E.M. PROJECT BLOG"
-----------------------------------------------------------------------
                WHAT'S THE FREQUENCY, KENNETH? - REM
-----------------------------------------------------------------------
Tabbed by: Barnaby Wilde
Email:

Intro
e|-2---3---2---0-3-----|
B|-3---3---3---3-3-----|
G|-2---0---2---2-0-----|
D|-0---0---0---2-0-----|
A|-----2-------0-2-----|
E|-----3-------0-3-----|

Verse
e|-0---2---2---3---0---2---0---3----|
B|-2---3---3---3---2---3---2---3----|
G|-2---2---4---0---2---2---2---0----|
D|-2---0---4---0---2---0---2---0----|
A|-0-------2---2---0-------0---2----|
E|-0-------2---3---0-------0---3----|

e|-0---2---2---3---0---2---2---0----|
B|-2---3---3---3---2---3---3---0----|
G|-2---2---4---0---2---2---4---1----|
D|-2---0---4---0---2---0---4---2----|
A|-0-------2---2---0-------2---2----|
E|-0-------2---3---0-------2---0----|

Bridge to Chorus
e|-3---0---3---0---|
B|-3---2---3---2---|
G|-0---2---0---2---|
D|-0---2---0---2---|
A|-2---0---2---0---|
E|-3---0---3---0---|

Chorus
e|-2---0---2---3---0------3---0---|
B|-3---2---3---3---2------3---2---|
G|-2---2---2---0---2------0---2---|
D|-0---2---0---0---2------0---2---|
A|-----0-------2---0------2---0---|
E|-----0-------3---0------3---0---|

Verse Fills
e|-2-0------------|
B|----------------|
G|----2---0-------|
D|---------4-2----|
A|----------------|
E|----------------|

Lead
e|--------------------------------|
B|-------------7------------------|
G|-7>10b<7-66-7----7-9b-7-7b------|
D|-----------9--9-7------9----9-7-|
A|--------------------------------|
E|--------------------------------|

e|-------------------------------|
B|---7--------7-8b---------------|
G|--7--7-6-7-9----7---------7hb--|
D|-9--9--------9---9-7-5-5-7-----|
A|-------------------------------|
E|-------------------------------|



-----------------------------------------------------------------------
                CRUSH WITH EYELINER - REM
-----------------------------------------------------------------------
Tabbed by: Barnaby Wilde
Email:

Verse (Strum and hold A for intro)
e|-0---0---0---|
B|-2---3---3---|
G|-2---0---2---|
D|-2---0---0---|
A|-0---2-------|
E|-0---3-------|

Verse Fill #1 (Live)
e|----------|
B|----------|
G|-4b-4-0---|
D|----------|
A|----------|
E|----------|

Verse Fill #2 (Live)
e|-----------------------|
B|---7---7--7--7---------|
G|->9-9b--9b-9b-9b-------|
D|-----------------------|
A|-----------------------|
E|----------------0-3b---|

Chorus
e|-0---0---0---0---0---0---0---|
B|-0---3---3---2---0---3---3---|
G|-1---2---0---2---1---2---0---|
D|-2---0---0---2---2---0---0---|
A|-2-------2---0---2-------2---|
E|-0-------3---0---0-------3---|

Lead
e|---7------0-------7------0-------|
B|---------------------------------|
G|-9b-9<7-7b-5----9b-9<7-7b-5------|
D|------------7-5------------7-5---|
A|---------------------------------|
E|---------------------------------|

e|->10- 10---10----->12-12---12------15--|
B|->10--10---10-10->12--12---12---12-15--|
G|->11---11---11--->13---13---13---------|
D|->12---12---12--->14---14---14---------|
A|---------------------------------------|
E|---------------------------------------|


-----------------------------------------------------------------------
                KING OF COMEDY - REM
-----------------------------------------------------------------------
Tabbed by: Barnaby Wilde
Email:

Verse
e|-0-0-0---0-0-0-------------0-0-0---|
B|-0-0-0---0-0-0-8-8-0-------0-0-0---|
G|-7-7-7---7-7-7-------6-6-6-6-6-6---|
D|-7-7-7---7-7-7-------7-7-7-7-7-7---|
A|-5-5-5---5-5-5-------7-7-7-7-7-7---|
E|-0-0-0---0-0-0-------5-5-5-5-5-5---|

e|-----------0--0--0---0-0-0-----------|
B|-----------0--0--0---0-0-0-----------|
G|--9--9--9--9--9--9---4-4-4---6-6-7-6-|
D|-10-10-10-10-10-10---5-5-5---7-7-7-7-|
A|-10-10-10-10-10-10---5-5-5---7-7-7-7-|
E|--8--8--8--0--0--0---3-3-3---5-5-5-5-|

Chorus
e|-0---0---3------------------------|
B|-3---0---3------------------------|
G|-0---5---0------------------------|
D|-5---5---0------------------------|
A|-5---3---2------------------------|
E|-0---0---3------------------------|

Bridge
e|-------------|
B|-------------|
G|-12----------|
D|-12----------|
A|-10-10<------|
E|-------(x8)--|

Outro Pick (G5-D-G)
e|----3-------3------3------3-----|
B|--3--3-3--3--3-3-3--3-3-3--3-3--|
G|---3--3----5--5---4--4---4--4---|
D|-5-------3------5------5--------|
A|--------------------------------|
E|--------------------------------|

-----------------------------------------------------------------------
                I DON'T SLEEP, I DREAM - REM
-----------------------------------------------------------------------
Tabbed by: Barnaby Wilde
Email:

Verse
e|-----7--0-0------0----|
B|--5---5----5-0-5h-5---|
G|---7---7-----------7--|
D|-7--7-----------------|
A|----------------------|
E|----------------------|

Chorus
e|-3-0----|
B|-3-0----|
G|-0-0----|
D|-0-2----|
A|-2-2----|
E|-3-0----|

-----------------------------------------------------------------------
                STAR 69 - REM
-----------------------------------------------------------------------
Tabbed by: Barnaby Wilde
Email:

Verse
e|-0---0---0---0---0---0---0----|
B|-0---0---0---0---0---0---0----|
G|-8---9---6---3---8---9---6----|
D|-9---9---7---4---9---9---7----|
A|-9---7---7---4---9---7---7----|
E|-7---0---5---2---7---0---5----|

Chorus
e|-0---2---0---2---0---2---0---|
B|-0---2---0---2---0---2---0---|
G|-1---3---1---3---1---3---6---|
D|-2---4---2---4---2---4---7---|
A|-2---4---2---4---2---4---7---|
E|-0---2---0---2---0---3---5---|

Break
e|-0---0-0---|
B|-6b--6-0---|
G|-0---0-0---|
D|-----------|
A|-----------|
E|-----------|

Chorus Fill (On open A)
e|-0---0-0-------|
B|--0-0---530----|
G|---------------|
D|---------------|
A|---------------|
E|---------------|

-----------------------------------------------------------------------
                STRANGE CURRENCIES - REM
-----------------------------------------------------------------------
Tabbed by: Barnaby Wilde
Email:

Intro/Verse
e|----------3-----3-----3-----3-----3-----------1-----3----|
B|-----------1---1-1-----1---1-1-----1---1--1--3-3---3-3---|
G|---------0--0-2---2--0--0-2---2--0--0-2--0--2---2-0---0--|
D|-2p0-0--2----3------2----3------2----3--2--0-----0-------|
A|----3--3-----------3-----------3-------------------------|
E|---------------------------------------------------------|

Chorus
e|-0-0--3-3--1-1--0-0--1---1---3---3---|
B|-1--1-3--3-1--1-1--1-1----1--3----3--|
G|-0----0----2----0----2--2--2-0--0--0-|
D|-2----0----3----2----3-3-----0-0-----|
A|-3----2----3----3----3-------2-------|
E|-0----3----1----0----1-------3-------|

e|-0-0--3-3--1-1--0-0--1---1--1--1---3---3---|
B|-1--1-3--3-1--1-1--1-3----3--3--3--3----3--|
G|-0----0----2----0----2--2--2--2--2-0--0--0-|
D|-2----0----3----2----0-0-----------0-0-----|
A|-3----2----3----3------------------2-------|
E|-0----3----1----0------------------3-------|

Middle Bridge
e|-0-0---3-3---0-0---3-3---0-0---1-0-1---1--1--1---3---3----|
B|-1--1--3--3--1--1--3--3--1--1--1-1-3----3--3--3--3----3---|
G|-2---2-0---0-2---2-0---0-2---2-2-0-2--2--2--2--2-0--0--0--|
D|-2-----0-----2-----0-----2-----3-2-0-0-----------0--------|
A|-0-----2-----0-----2-----0-----3-3---------------2--------|
E|-0-----3-----0-----3-----0-----1-0---------------3--------|


-----------------------------------------------------------------------
                TONGUE - REM
-----------------------------------------------------------------------
Tabbed by: Barnaby Wilde
Email:



This song has a couple of chords, but it relatively easy to learn. The following tab is piano tab.  
If you want more specific instructions they are at tabnabber.com, but here are the basics:

1. L and R is Left hand Right hand
2. The numbers to the right of the hand designation are the octave groups. Middle c is octave 4. 
All octaves start on c.
3. The lowercase letters are the whole notes- white keys.
4. The uppercase (In this case only 1) is a sharp note- black key.
5. This symbol (>) means sustain the note.
6. This symbol (|) separates the measures.

Because some chords and notes straddle and change octaves, some of the following is inaccurate, 
once you find the starting positions, you should be okay though.

The organ line follows the chords and at times follows the piano below.

Verse: F-Bb (x4) Am-Gm
The only guitar is barred F on the 8th fret with a repeat
L 2|--------A---g--|--------A--g--|
L 3|f---c----------|f---c---------|
R 4|f-c-f-g>-c-g-a-|>-c-a-g>-f-c>-|

L 3|---------------|3|a-a-g------|
L 2|--------A---g--|4|c-c-A------|
L 3|f---c----------|4|e-e-d------|
R 4|f-c-f-g>-c-g-a-|4|a-a-g--agf-|

Chorus: Eb-Ab-Eb-Ab-Eb-Eb(D)-Ab-Bb 
L 3|D---G---|D---G---|D---d---|G---A---|
L 3|g---c---|g---c---|g---g---|c---d---|
L 3|A---D---|A---D---|A---A---|D---f---|
R 4|DDD-GG-c|DDD-GG-c|DDD-dd--|GG--A---|

Middle Bridge:  C-Bm-Bb-F-G-Ab-Bb  (Follow with fuzzed guitar notes)
L 3|c----|b----|A----|f----|g-G---|A---|
L 3|e----|d----|d----|a----|b-c---|d---|
L 3|g----|F----|f----|c----|d-D---|f---|
R 4|ggDfg|gg-fD|g-gfD|fffff|g-G---|A---|

End:
R 5|abc-ef|

Bb Guitar chord at the end:
e|-13---|
B|-11---|
G|-10---|
D|------|
A|------|
E|------|



-----------------------------------------------------------------------
                BANG AND BLAME - REM
-----------------------------------------------------------------------
Tabbed by: Barnaby Wilde
Email:

Verse: Same form picking and echoing Am-G
Although the 8th fret B-string note is not necessary for pick
e|-0---0---|
B|-0---8---|
G|-5---7---|
D|-7---5---|
A|-7---5---|
E|-0---0---|

Chorus: A-C-A-G-A-C-B-Bb
e|-----------------------------------|
B|-----------------------------------|
G|-6----9---6---4---6----9---8---7---|
D|-7---10---7---5---7---10---9---8---|
A|-7---10---7---5---7---10---9---8---|
E|-5----8---5---3---5----8---7---6---|

Chorus into Middle Bridge
e|---------------------------0-0--0--0---|
B|---------------------------0--0--0--0--|
G|-6----9---6---4---6----9---8---8--8--8-|
D|-7---10---7---5---7---10---9-----------|
A|-7---10---7---5---7---10---9-----------|
E|-5----8---5---3---5----8---7-----------|

Middle Bridge
e|-0---0--------0---|
B|-0---0--------0---|
G|-9---8--------6---|
D|-9---9---x3---7---|
A|-7---9--------7---|
E|-0---7--------5---|

Interlude Bm
e|---0-0-----|
B|-------3---|
G|--4---4----|
D|-4---------|
A|-----------|
E|-----------|

-----------------------------------------------------------------------
                I TOOK YOUR NAME - REM
-----------------------------------------------------------------------
Tabbed by: Barnaby Wilde
Email:

Intro
e|-0---|
B|-0---|
G|-9---|
D|-9---|
A|-7---|
E|-0---|

Verse
e|-0-0-0-0>0---0---|
B|-0-0-0-0>0---0---|
G|-7-7-7-7>9---9---|
D|-7-7-7-7>9---9---|
A|-5-5-5-5>7---7---|
E|-0-0-0-0>0---0---|

Chorus
e|-0---0---0-0-0-0>0---0---|
B|-0---0---0-0-0-0>0---0---|
G|-9---6---7-7-7-7>9---9---|
D|10---7---7-7-7-7>9---9---|
A|10---7---5-5-5-5>7---7---|
E|-8---5---0-0-0-0>0---0---|

Chorus Lead
e|---------------------------|
B|---------------------------|
G|----7-7-9h-7-9-7-----------|
D|-7-9------------9-7-7-9h---|
A|---------------------------|
E|---------------------------|

Middle Bridge
e|-0-0-0-0>-0----0---0-0-0-0>0---0---|
B|-0-0-0-0>-0----0---0-0-0-0>0---0---|
G|-9-9-9-9>11---11---7-7-7-7>9---9---|
D|-9-9-9-9>11---11---7-7-7-7>9---9---|
A|-7-7-7-7>-9----9---5-5-5-5>7---7---|
E|-0-0-0-0>-0----0---0-0-0-0>0---0---|

Middle Bridge Lead
e|-------------------------------|
B|-9b^---------------7b^---------|
G|---------11----------------9---|
D|-------------------------------|
A|-------------------------------|
E|-------------------------------|


-----------------------------------------------------------------------
                LET ME IN - REM
-----------------------------------------------------------------------
Tabbed by: Barnaby Wilde
Email:

Verse
e|-0---2---0---3-2---0---2---0---0---|
B|-0---3---0---3-3---0---3---0---1---|
G|-0---4---0---2-2---0---4---0---0---|
D|-2---4---2---0-0---2---4---2---2---|
A|-2---2---2---------2---2---2---3---|
E|-0---2---0---------0---2---0---0---|

Chorus
e|-2---3---0---0---2---3---0---0---|
B|-3---3---1---1---3---3---1---1---|
G|-2---0---0---2---2---0---0---0---|
D|-0---0---2---2---0---0---2---2---|
A|-----2---3---0-------2---3---3---|
E|-----3---0---0-------3---0---0---|

e|-2---3---0---0---2---3---0---0---|
B|-3---3---1---1---3---3---0---0---|
G|-2---0---0---2---2---0---0---0---|
D|-0---0---2---2---0---0---2---2---|
A|-----2---3---0-------2---2---2---|
E|-----3---0---0-------3---0---0---|

Go to D before last Verse

-----------------------------------------------------------------------
                CIRCUS ENVY - REM
-----------------------------------------------------------------------
Tabbed by: Barnaby Wilde
Email:

Verse Guitar 1
e|--------------------------------|
B|--------------------------------|
G|--------------------------------|
D|--------------------------------|
A|------------------------8-------|
E|-10-10-8-10---10-10-8-10-10-8---|

Verse Guitar 2
e|------------------------|
B|------------------------|
G|------------------------|
D|-----------------3------|
A|----3-5-------3-5-5-3---|
E|-5-5-------5-5----------|

Verse Guitar Dropped D
e|------------------------|
B|------------------------|
G|------------------------|
D|-----------------3------|
A|-0-0--3-5-------3-5-5-3-|
D|-0-0--0-0---0-0-0-0-0-0-|

Chorus
e|-0---0---|
B|-0---0---|
G|-0---0---|
D|-7---5---|
A|-7---5---|
E|-5---3---|

Chorus Slide
e|--------------------|
B|--------------------|
G|--------------------|
D|-----------5-7>9-7--|
A|--------------------|
E|-3-5>7-5------------|

Middle Bridge/ Outro
e|--------------------------------------|
B|--------------------------------------|
G|-0---0---0---0---0---0---0---0--------|
D|-0---3---7--10---0---3---5---7--------|
A|-0---3---7--10---0---3---5---7-----3--|
E|-0---1---5---8---0---1---3---5--5-3---|

-----------------------------------------------------------------------
                YOU - REM
-----------------------------------------------------------------------
Tabbed by: Barnaby Wilde
Email:

Verse
e|-0--------------0-6---6-6-0-0-0--0---0-3--|
B|-3--------------3-6---6-6-0-3--3-3---3-3--|
G|-2---0-2h0p--0--2-7---7-7-0-2----2---2-2--|
D|-0---------3h-0-0-----------0----0---0-0--|
A|------------------------------------------|
E|------------------------------------------|

Chorus (Guitar 1)
e|-0---|
B|-1---|
G|-0---|
D|-2---|
A|-3---|
E|-0---|

Chorus (Guitar 2)
e|-0---|
B|-5b!-|
G|-0---|
D|-----|
A|-----|
E|-----|
Добавлено: 07.07.2015
Другие материалы по этой песне:
  • Аккорды и текст

Страница создана 07.07.2015
http://primanota.ru/rem/monster-ver-2-album-chords.htm
Привет, Гость.
Предлагаем пройти революционный курс по гитаре.
Подарок от PrimaNota.Ru, забирай!