PrimaNota.ru - самый крупный в мире бесплатный архив песенных текстов, аккордов, табулатур и нот


Rem - Lifting - текст песни, таба, видео

Регистрация Запомнить меня
Войти через:  Facebook Google Twitter Vk Yandex Mail.ru

Rem - Lifting - текст песни, таба, видео

Печатать
Просмотров: 147
Band Name: R.E.M.
Song: The Lifting, from the album Reveal.
Tabbed by: Thomas Andre Teigland
(thomas_teigland@yahoo.com)
Date: 10.10.01

This song is basically a piano playing, and an
annoying distorted/squelched guitar over it :)

Notice all the verses, choruses etc have the same
chords, so Ive only typed up an example of how to play
one of them, so just apply this to the other ones.

Verse: 

[G] [Dm]
[G] [Dm]
[G] [Dm] [G] [Dm]

[G] [Dm]
[G] [Dm]
[G] [Dm]
[G] [Dm]

Chorus:

[Am] [G] 
[Am] [G] [Am]
[G] [Em]

Pre-solo:

[C] [Dm] [G] [Am]
[C] [Dm] [G] [Am]
[C] [Dm] [G] [Am]
[Em]

Solo:

e-|----------------------------------------|
B-|----------------------------------------|
G-|-----4h5-s7------9-7s5-4h5p4------------|
D-|-5-7-------------------------7-5-7------|
A-|----------------------------------------|
E-|----------------------------------------|


e-|----------------------------------------|
B-|----------------------------------------|
G-|-----4h5-s7------15-12---13-10s8-6-8----|
D-|-5-7------------------------------------|
A-|----------------------------------------|
E-|----------------------------------------|

h: hammer on
p: pull off
s: slide

Notice the special effect on the guitar, which makes
a very "sliding" sound. If you dont have this kind of
pedal, you might want to play the solo on just 1
string where possible, to reach a similar effect.

Enjoy this lovely song from R.E.M.
     
Добавлено: 17.06.2013
Другие материалы по этой песне:

Страница создана 15.03.2012
http://primanota.ru/rem/lifting-chords.htm
Привет, Гость.
Предлагаем пройти революционный курс по гитаре.
Подарок от PrimaNota.Ru, забирай!