PrimaNota.ru - самый крупный в мире бесплатный архив песенных текстов, аккордов, табулатур и нот


Rem - Hyena - аккорды и текст, таба, видео

Регистрация Запомнить меня
Войти через:  Facebook Google Twitter Vk Yandex Mail.ru

Rem - Hyena - аккорды и текст, таба, видео

Печатать
Просмотров: 205
Hyena
Rem
For the latest collection of R.E.M. chords & tab, go to
# http://www.uark.edu/~cbray/rem/
#
# If you have any corrections or additions to this file, please email them
# to cbray@comp.uark.edu
#

HYENA


(tab: r. muncada, lyr: Ron Henry, rgh3@cornell.edu / rec.music.rem)

P. Buck's verse riffs (not timed properly, you should know, clean, muted)
-------------------------------------------|
---------0-0-0-2-3-3-3-3-3-2/2-2-2-2-2-2-|
-2-2-2-3-----------------------------------|
-------------------------------------------|
-------------------------------------------|
-------------------------------------------|


E                      A  A
Night time fell at the opening,
In the final act of the beginning of time.
Hyena take your role, the stage is set.
The town is safe again tonight


E|-----0-3--3--2--2--0--0-----0-3--3--2--2--0--0-|
B|-2-3--------------------2-3--------------------|
G|-----------------------------------------------|
D|-----------------------------------------------|
A|-----------------------------------------------|
E|-----------------------------------------------|

      G    D    A
             Hyena (I see the day ahead)
             Hyena (and all that I've cried through)
             Hyena (God knows you're doin' that, don't you?)

        [The open chord sequence with the moving bass line is:

        D(strummed repeatedly) Am    D    Am    E

   {lyr: don't you?}

E                     A   A
Hyena, sister look to your hand
Man you serve communal interest,
She'll tell you when and where and how and why you'd hurt
A beautiful young lady

Hyena (I see the day ahead)
Hyena (and all that I've cried through)
Hyena (God knows you're doin' that, don't you?)

The only thing to fear is fearlessness
The bigger the weapon the greater the fear
Hyena is ambassador to here

Night time fell like the closing
Meager pay, but recognition
Hyena crawls on his belly out
The town is safe again tonight

Hyena (I see the changes, man)
Hyena (Goin' on 'cross the way)
Hyena (I see my road ahead)
Hyena (Don't know if I should stay)
Hyena (I see you holding him,)
Hyena (and all that I've cried through)
Hyena (God knows you're doin' that, don't you?)
Добавлено: 07.05.2012
Другие материалы по этой песне:
  • Аккорды и текст

Страница создана 11.03.2012
http://primanota.ru/rem/hyena-chords.htm
Привет, Гость.
Предлагаем пройти революционный курс по гитаре.
Подарок от PrimaNota.Ru, забирай!