PrimaNota.ru - самый крупный в мире бесплатный архив песенных текстов, аккордов, табулатур и нот


Relient K - The Last The Lost The Least - текст песни, таба, видео

Регистрация Запомнить меня
Войти через:  Facebook Google Twitter Vk Yandex Mail.ru

Relient K - The Last The Lost The Least - текст песни, таба, видео

Печатать
Просмотров: 89
The Last the Lost the Least
Relient K
The Bird and the Bee Sides
2008

Intro: Guitar 1 (dist.)
   Rhy. Fig. 1                 				   End Rhy. Fig. 1
Eb|-----------------|-----------------|-----------------|-----------------|
Bb|-----------------|-----------------|-----------------|-----------------|
Gb|-----------------|-----------------|-----------------|----------\4-4-4-|
Db|-6-6-6-6-6-6-6-6-|-2-2-2-2-2-2-2-2-|-4-4-4-4-4-4-4-4-|-4-4-4-4-4\4-4-4-|
Ab|-6-6-6-6-6-6-6-6-|-2-2-2-2-2-2-2-2-|-4-4-4-4-4-4-4-4-|-4-4-4-4-4\2-2-2-|
Eb|-4-4-4-4-4-4-4-4-|-0-0-0-0-0-0-0-0-|-2-2-2-2-2-2-2-2-|-2-2-2-2-2\------|

Guitar 1 w/ Rhy. Fig. 1 then:
                              Eb|-----------------|
                              Bb|-----------------|
                              Gb|-----------------|
                              Db|-4-4-4-4-4-4-4-4-|
                              Ab|-4-4-4-4-4-4-4-4-|
                              Eb|-2-2-2-2-2-2-2-2-|

Guitar 2:
   Riff A					    End Riff A
Eb|-----------------|-----------------|-----------------|-----------------|
Bb|-----------------|-----------------|-----------------|-----------------|
Gb|-9-9-8-8/4-4\9-9-|-8-8/4-4\9-9-8-8/|/4-4\9-9-8-8/4-4-|-3~--------------|
Db|-----------------|-----------------|-----------------|-----------------|
Ab|-----------------|-----------------|-----------------|-----------------|
Eb|-----------------|-----------------|-----------------|-----------------|

Guitar 3:
   Riff B 					    End Riff B
Eb|-----------------|-----------------|-----------------|-----------------|
Bb|-9-9-7-7/4-4\9-9-|-7-7/4-4\9-9-7-7/|/4-4\9-9-7-7/4-4-|-2~(P.H.??)------|
Gb|-----------------|-----------------|-----------------|-----------------|
Db|-----------------|-----------------|-----------------|-----------------|
Ab|-----------------|-----------------|-----------------|-----------------|
Eb|-----------------|-----------------|-----------------|-----------------|

Verse 1: Guitar 1
Eb|-----------------|-----------------|-----------------|-----------------|
Bb|-----------------|-----------------|-----------------|-----------------|
Gb|-----------------|-4-4-4-4-4-4-4-4-|-9-9-9-9-9-9-9-9-|-9-9-9-9-9-9-9-9-|
Db|-6-6-6-6-6-6-6-6-|-4-4-4-4-4-4-4-4-|-9-9-9-9-9-9-9-9-|-9-9-9-9-9-9-9-9-|x2
Ab|-6-6-6-6-6-6-6-6-|-2-2-2-2-2-2-2-2-|-7-7-7-7-7-7-7-7-|-7-7-7-7-7-7-7-7-|
Eb|-4-4-4-4-4-4-4-4-|-----------------|-----------------|-----------------|

Guitar 2
Eb|-----------------|-----------------|
Bb|-----------------|-----------------|
Gb|-----------------|-----------------|
Db|-6-------x-2---4-|(4)4-4-4-4-4-4-4-|
Ab|-6-------x-2---4-|(4)4-4-4-4-4-4-4-|
Eb|-4-------x-0---2-|(2)2-2-2-2-2-2-2-|

Guitar 1
Eb|-----------------|-----------------|
Bb|-----------------|-----------------|
Gb|-8---------------|-----------------|
Db|-x~--------------|-----------------|
Ab|-6~--------------|-----------------|
Eb|-----------------|-----------------|

Guitar 2
Eb|-----------------|-----------------|
Bb|-----------------|-----------------|
Gb|-4~--------------|-----------------|
Db|-x---------------|-----------------|
Ab|-2~--------------|-----------------|
Eb|-----------------|-----------------|

Guitar 4 (really, any guitar would do)
Eb|
Bb|
Gb|Feedback from mic.- Pitch: Eb
Db|
Ab|
Eb|

Pre-Chorus: Guitar 4 (again, really, any guitar would do)
Eb|---------------------------|
Bb|---------------------------|
Gb|---------------------------|
Db|-4-------------------------|
Ab|-4-Some weird delay effect-|
Eb|-2-------------------------|

Chorus: Guitar 1
   Rhy. Fig. 2
Eb|-----------------|-----------------|-----------------|-----------------|
Bb|-----------------|-----------------|-----------------|-----------------|
Gb|-----------------|-----------------|-------x-4---x-9-|(9)9-9-9-9-------|
Db|-6---6-xx2---x-4-|(4)4-4---4-4-4-4-|-6-----x-4---x-9-|(9)9-9-9-9-0-0-0-|
Ab|-6---6-xx2---x-4-|(4)4-4---4-4-4-4-|-6-----x-2---x-7-|(7)7-7-7-7-0-0-0-|
Eb|-4---4-xx0---x-2-|(2)2-2---2-2-2-2-|-4---------------|-----------0-0-0-|

Eb|-----------------|-----------------|-----------------|-----------------|
Bb|-----------------|-----------------|-----------------|-----------------|
Gb|-----------------|-----------------|-----------------|-----------------|
Db|-6---x-2-------4-|(4)4-4---4-4-4-4-|-6-----x-4---x-2-|(2)2-2-2-2-2-2-2-|
Ab|-6---x-2-------4-|(4)4-4---4-4-4-4-|-6-----x-4---x-2-|(2)2-2-2-2-2-2-2-|
Eb|-4---x-0-------2-|(2)2-2---2-2-2-2-|-4-----x-2---x-0-|(0)0-0-0-0-0-0-0-|

Outro: Guitar 1
                 End. Rhy. Fig. 2
Eb|-----------------|-----------------|
Bb|-----------------|-----------------|
Gb|-----------------|-----------------|
Db|-2-2-2-2-2-2-2-2-|-4-4-4-4-4-4-4-4-|
Ab|-2-2-2-2-2-2-2-2-|-4-4-4-4-4-4-4-4-|
Eb|-0-0-0-0-0-0-0-0-|-2-2-2-2-2-2-2-2-|

Verse 2: Just Bass until the 4th measure which goes w/ Guitar 1:
Eb|-------------0---|
Bb|-------------0---|
Gb|-------------0---|
Db|-------------0---|<-- Harmonic?
Ab|-------------0---|
Eb|-------------0---|
Then:
Guitar 1
Eb|-----------------|-----------------|-----------------|-----------------|-----------------|
Bb|-----------------|-----------------|-----------------|-----------------|-----------------|
Gb|-----------------|-----------------|-----------------|-----------------|-----------------|
Db|-6-6-6-6-6-6-6-6-|-4-4-4-4-4-4-4-4-|-2-2-2-2-2-2-2-2-|---4-4-4-4---4---|---4-4-4-4---4---|
Ab|-6-6-6-6-6-6-6-6-|-4-4-4-4-4-4-4-4-|-2-2-2-2-2-2-2-2-|---4-4-4-4---4---|---4-4-4-4---4---|
Eb|-4-4-4-4-4-4-4-4-|-2-2-2-2-2-2-2-2-|-0-0-0-0-0-0-0-0-|---2-2-2-2---2---|---2-2-2-2---2---|
P.M.* * * * * * * *   * * * * * * * *   * * * * * * * *
Guitar 2
                                    Eb|-----------------|
                                    Bb|-----------------|
                                    Gb|---9-9-8-8-8/4---|
                                    Db|-----------------|
                                    Ab|-----------------|
                                    Eb|-----------------|
Guitar 3
                                    Eb|-----------------|
                                    Bb|---9-9-8-8-8/2---|
                                    Gb|-----------------|
                                    Db|-----------------|
                                    Ab|-----------------|
                                    Eb|-----------------|
Chorus and Outro: Guitar w/ Rhy. Fig. 2

Interlude:
Guitar 2
Eb|-----------------|---------------------|-------------------|-----------------|
Bb|-----------------|---------------------|-------------------|-----------------|
Gb|-9-9-8-8/4-4\9-9-|-8-8/4-4\13-13-11-11/|-8-8\11-11-13-11~--|-------------///-|
Db|-----------------|---------------------|-------------------|-----------------|
Ab|-----------------|---------------------|-------------------|-----------------|
Eb|-----------------|---------------------|-------------------|-----------------|

Guitar 3
Eb|-----------------|---------------------|-------------------|-----------------|
Bb|-9-9-7-7/4-4\9-9-|-7-7/4-4\12-12-11-11/|-8-8\11-11-12-11~--|-------------///-|
Gb|-----------------|---------------------|-------------------|-----------------|
Db|-----------------|---------------------|-------------------|-----------------|
Ab|-----------------|---------------------|-------------------|-----------------|
Eb|-----------------|---------------------|-------------------|-----------------|

Guitar 1
Eb|-----------------|-----------------|-----------------|-----------------|
Bb|-----------------|-----------------|-----------------|-----------------|
Gb|-----------------|-----------------|-----------------|-----------------|
Db|-2-2-2-2-2-2-2-2-|-2-2-2-2-2-2-2-2-|-4-4-4-4-4-4-4-4-|-4-4-4-4-4-4-4-4-|
Ab|-2-2-2-2-2-2-2-2-|-2-2-2-2-2-2-2-2-|-4-4-4-4-4-4-4-4-|-4-4-4-4-4-4-4-4-|
Eb|-0-0-0-0-0-0-0-0-|-0-0-0-0-0-0-0-0-|-2-2-2-2-2-2-2-2-|-2-2-2-2-2-2-2-2-|
   (His image shown...)
Eb|-----------------|-----------------|-----------------|-----------------|-----------------|
Bb|-----------------|-----------------|-----------------|-----------------|-----------------|
Gb|-----------------|-----------------|-----------------|-----------------|-----------------|
Db|-2-2-2-2-2-2-2-2-|-2-2-2-2-2-2-2-2-|-4-4-4-4-4-4-4-4-|-4-4-4-4-4-4-4-4-|-4-4-4-4-4-4-4-4-|
Ab|-2-2-2-2-2-2-2-2-|-2-2-2-2-2-2-2-2-|-4-4-4-4-4-4-4-4-|-4-4-4-4-4-4-4-4-|-4-4-4-4-4-4-4-4-|
Eb|-0-0-0-0-0-0-0-0-|-0-0-0-0-0-0-0-0-|-2-2-2-2-2-2-2-2-|-2-2-2-2-2-2-2-2-|-2-2-2-2-2-2-2-2-|
   (To feed to clothe...)

Chorus: Acoustic Guitar 
Eb|-----------------|-----------------|
Bb|-----------------|-----------------|
Gb|-----------------|-----------------|
Db|-6---6xx22-2-2-4-|(4)4-4-4-4-4-4-4-|
Ab|-6---6xx22-2-2-4-|(4)4-4-4-4-4-4-4-|
Eb|-4---4xx00-0-0-2-|(2)2-2-2-2-2-2-2-|

Guitar 2
Eb|-----------------|-----------------|-----------------|-----------------|
Bb|-----------------|-----------------|-----------------|-----------------|
Gb|-----------------|-----------------|-------x-4---x-9-|(9)9-9-9-9-------|
Db|-----------------|---------4-------|-6-----x-4---x-9-|(9)9-9-9-9-0-0-0-|
Ab|-----------------|---------4-------|-6-----x-2---x-7-|(7)7-7-7-7-0-0-0-|
Eb|-----------------|---------2-------|-4---------------|-----------0-0-0-|
			Delay effect again

Eb|-----------------|-----------------|-----------------|-----------------|
Bb|-----------------|-----------------|-----------------|-----------------|
Gb|-----------------|-----------------|-----------------|-----------------|
Db|-6---x-2-------4-|(4)4-4---4-4-4-4-|-6-----x-4---x-2-|(2)2-2-2-2-2-2-2-|
Ab|-6---x-2-------4-|(4)4-4---4-4-4-4-|-6-----x-4---x-2-|(2)2-2-2-2-2-2-2-|
Eb|-4---x-0-------2-|(2)2-2---2-2-2-2-|-4-----x-2---x-0-|(0)0-0-0-0-0-0-0-|

Outro:
Guitar 1
Eb|-----------------|-----------------|-------------------------|-------------------------|
Bb|-----------------|-----------------|-------------------------|-------------------------|
Gb|-9-9-9-9-9-9-9-9-|-9-9-9-9-9-9-9-9-|-11-11-11-11-11-11-11-11-|-11-11-11-11-11-11-11-11-|
Db|-9-9-9-9-9-9-9-9-|-9-9-9-9-9-9-9-9-|-11-11-11-11-11-11-11-11-|-11-11-11-11-11-11-11-11-|x2
Ab|-7-7-7-7-7-7-7-7-|-7-7-7-7-7-7-7-7-|-9--9--9--9--9--9--9--9--|-9--9--9--9--9--9--9--9--|
Eb|-----------------|-----------------|-------------------------|-------------------------|

Guitar 2
Eb|-----------------|-----------------|-----------------|----------------|
Bb|-----------------|-----------------|-----------------|----------------|
Gb|-9-9-8-8/4-4\9-9-|-8-8/4-4\9-9-8-8/|-4-4\9-9-8-8/4-4-|-3-3-4~---------|x2
Db|-----------------|-----------------|-----------------|----------------|
Ab|-----------------|-----------------|-----------------|----------------|
Eb|-----------------|-----------------|-----------------|----------------|

Guitar 3
Eb|-----------------|-----------------|-----------------|----------------|
Bb|-9-9-7-7/4-4\9-9-|-7-7/4-4\9-9-7-7/|-4-4\9-9-7-7/4-4-|-2-2-4~---------|
Gb|-----------------|-----------------|-----------------|----------------|
Db|-----------------|-----------------|-----------------|----------------|x2
Ab|-----------------|-----------------|-----------------|----------------|
Eb|-----------------|-----------------|-----------------|----------------|

Guitar 1
Eb|-----------------|
Bb|-----------------|
Gb|-----------------|
Db|-6-6-------------|
Ab|-6-6-------------|
Eb|-4-4-------------|

Guitar ?? (Any other)
Eb|-----------------|
Bb|-----------------|
Gb|-13-13-----------|
Db|-13-13-----------|
Ab|-11-11-----------|
Eb|-----------------|
Добавлено: 21.07.2012
Другие материалы по этой песне:
  • Аккорды и текст

Страница создана 21.07.2012
http://primanota.ru/relient-k/the-last-the-lost-the-least-chords.htm
Привет, Гость.
Предлагаем пройти революционный курс по гитаре.
Подарок от PrimaNota.Ru, забирай!