PrimaNota.ru - самый крупный в мире бесплатный архив песенных текстов, аккордов, табулатур и нот


Relient K - Handels Messiah - таба, видео

Регистрация Запомнить меня
Войти через:  Facebook Google Twitter Vk Yandex Mail.ru

Relient K - Handels Messiah - таба, видео

Печатать
Просмотров: 108
-------------------------------------------------------------------------------
Handel's Messiah - Relient K
-------------------------------------------------------------------------------
Tabbed by:
E-mail:

Tuning: Standard

e|------------------------------------------------------------------------------|
B|------------------------------------------------------------------------------|
G|---7--------------------------------------------------------------------------|
D|---7--------------------------------------------------------------------------|
A|---5--------------------------------------------------------------------------|
E|------------------------------------------------------------------------------|

e|-------------------------------------------------------------------------------------------|
B|-------------------------------------------------------------------------------------------|
G|-------------------------------------------------------------------------------------------|
D|--7-xxxx-12---12-xxxx--7-xxxx-12---12--xxxx--12---12-xxxx-12---12----------7-7----7-----7--|
A|--5-xxxx-10---9--xxxx--5-xxxx-10---9---xxxx--10---9--xxxx-10---9-----------4s5----5-----7--|
E|----------------------------------------------------------------------------------------5--|

e|------------------------------------------------------------------------------------------------|
B|------------------------------------------------------------------------------------------------|
G|------------------------------------------------------------------------------------------------|
D|---9-xxxx-11--9--xxxx---9-xxxx-11--9---xxxx--------11--9-xxxx--11--9--xxxx------11s9----9----7--|
A|---7-xxxx--9---7-xxxx---7-xxxx-9---7---xxxx---------9--7-xxxx---9--7--xxxx------9-s7----7----7--|
E|---------------------------------------------------------------------------------------------5--|

e|------------------------------------------------------------------------------------|
B|------------------------------------------------------------------------------------|
G|------------------------------------------------------------------------------------|
D|---7------------9-------7---------------7----7-----7---------7---7------------------|
A|---7------------9-------4---------------5----5-----5---------5---4----------2----7--|
E|---5------------7-----------------------------------------------------------0----5--|

e|------------------------------------------------------------------------------------------------------|
B|------------------------------------------------------------------------------------------------------|
G|------------------------------------------------------------------------------------------------------|
D|---11--9-xxxx-11---9---xxxx--11---9--xxxx-11--9----------7----9----11-------------------------9----7--|
A|---9---7-xxxx--9---7---xxxx---9---7--xxxx-9---7----------5----7----9---5--5---5-----5--4------7----5--|
E|-----------------------------------------------------------------------3--3---3-----3--2--------------|

e|---------------------------------------------------------------------------------------------------|
B|---------------------------------------------------------------------------------------------------|
G|---------------------------------------------------------------------------------------------------|
D|--7--7-xxxx-7--7-xxxx-7--7-xxxx-7--7-xxxx----7-----9----11--------------------------------9-----7--|
A|--5--4-xxxx-5--4-xxxx-5--4-xxxx-5--4-xxxx----5-----7-----9-----5--5---5------5-----4------7-----5--|
E|---------------------------------------------------------------3--3---3------3-----2---------------|

e|-------------------------------------------------------------------------------------------|
B|-------------------------------------------------------------------------------------------|
G|-------------------------------------------------------------------------------------------|
D|---------------7---------7---7----7------7---7-------------------4----------4-----6-----7--|
A|---7-----9-----4---------5---5----5------5---4---9---7-----------------5-------------------|
E|---5-----7---------------------------------------7---5-------------------------------------|

e|---------------------------------------------------------------------------------|
B|---------------------------------------------------------------------------------|
G|---------------------------------------------------------------------------------|
D|--7------9---11--------------------------------9---7--------------------------7--|
A|--5------7---9------x---x----5-----5---4-------7---5-----5---5---5--5---7-----5--|
E|--------------------x---x----3-----3---2-----------------3---3---3--3---5--------|
Добавлено: 02.04.2015
Другие материалы по этой песне:

Страница создана 26.02.2012
http://primanota.ru/relient-k/handels-messiah-chords.htm
Привет, Гость.
Предлагаем пройти революционный курс по гитаре.
Подарок от PrimaNota.Ru, забирай!