PrimaNota.ru - самый крупный в мире бесплатный архив песенных текстов, аккордов, табулатур и нот


Relient K - God Rest Ye Merry Gentlemen - таба, видео

Регистрация Запомнить меня
Войти через:  Facebook Google Twitter Vk Yandex Mail.ru

Relient K - God Rest Ye Merry Gentlemen - таба, видео

Печатать
Просмотров: 111
Уроки эстрадного вокала в Санкт-Петербурге
God Rest Ye Merry Gentlemen – Relient K
Drop D - tuning
                                  Transcribed by: Jason Stephenson
                                                  jwstephenson@yahoo.com

Not all rhythm is tabbed for times sake.

Lead In
                         Repeat though O tidings…
|---------------------------------------------------------------|
|----7------7------7--------------------------------------------|
|--7------7------7----------------------------------------------|
|------11-----11-----11...--------------------------------------|
|---------------------------------------------------------------|
|---------------------------------------------------------------|
                                
Intro x2
  B       D      F#7     F#/A#
|---------------------------------------------------------------|
|-3333333-------------------------------------------------------|
|-4444444-------------------------------------------------------|
|-4444444-0000000-2222222-4444444-------------------------------|
|-2222222-0000000-1111111-1111111-------------------------------|
|---------0000000-----------------------------------------------|



Verse 1
   B5 F#/A# B5 F#5 G5    D5    F#7 B5 F#/A# B5 F#5 G5      D5   F#7
|-------------------------------------------------------------------|
|-------------------------------------------------------------------|
|-------------------------------------------------------------------|
|-44444444444444445555555500000222-44444444444444445555555500000222-|
|-22221111222244445555555500000111-22221111222244445555555500000111-|
|-------------44445555555500000----------------44445555555500000----|

                  Bm      A
                  we…    astray…
|-------------------------------------------------------------------|
|-----------------3--------2----------------------------------------|
|-----------------4--------2----------------------------------------|
|-----------------4--------2----------------------------------------|
|---------000011112--------0----------------------------------------|
|-55224455----------------------------------------------------------|

God Rest Ye Merry Gentlemen
Let nothing you dismay
Remember Christ the Savior
Was born on Christmas Day
To Save us all from Satan's pow'r
When we had gone astray

Chorus:
  D          F#7                Bm               A
O tidings of comfort and joy, comfort and joy
  D          F#7
O tidings of comfort and joy

Verse 2 arppegiate Verse 1 chords

>From God our Heav'nly Father
A Blessed Angel came
And unto certain shepherd's
Brought tidings of the same
How that in Bethlehem was born
The Son of God by name
O tidings of comfort and joy, comfort and joy
O tidings of comfort and joy


Solo eight notes of below 
|---------------------------------------------------------------|
|--12-------7-------5-------11----------------------------------|
|---------------------------------------------------------------|
|---------------------------------------------------------------|
|---------------------------------------------------------------|
|---------------------------------------------------------------|

Chord progression for solo
Chorus:
Same as intro

Final chorus similar chords slightly different pattern than previous chorus.

Enjoy

Добавлено: 05.03.2012
Другие материалы по этой песне:
  • Аккорды и текст

Страница создана 05.03.2012
http://primanota.ru/relient-k/god-rest-ye-merry-gentlemen-chords.htm
Привет, Гость.
Предлагаем пройти революционный курс по гитаре.
Подарок от PrimaNota.Ru, забирай!